>
 >
Last Of The Blacksmiths

Last Of The Blacksmiths Bass Tabs

The Band - Last Of The Blacksmiths chords, tabs, tablatures, lyrics

Guitar lessons | Add/correct | Request | Top 50 tabs Artists:  A B C D E F G H I J K L M N O P Q R S T U V W X Y Z 0-9

Last Of The Blacksmiths Bass Tabs – The Band

CD, Sheet music, Poster

Do you like Last Of The Blacksmiths? Share with your friends now
Bass Tabs
Last of the Blacksmiths
The Band
Bass Tab
Bassist: Rick Danko

192BPM, 4/4, Drop-D Tuning

Intro

|----------|------------|------------|--------------|
|-----1----|----1--5----|------------|--------------|
|----------|--3---------|-3------1-2-|-3-1----1-3---|
|----------|------------|------------|-----5--------|

|----------|------------|-----------|--------------|
|-----1----|----1--5----|-----------|--------------|
|----------|--3---------|-3------3--|-3--1---------|
|----------|------------|-----------|-------5-4-3--|

Verse

|-----------|-----------|----------|-----------|
|------1----|-----------|----------|-----------|
|-----------|-----------|-1--------|--------1--|
|-1---------|-1----5----|----------|-----5-----|

|-----------|------------|------------|------------|
|-----------|-1----2--2--|-3--3-------|------------|
|-3------3--|------------|------------|------------|
|-----------|------------|---------3--|---5--6--7--|

|----------|------------|------------|------------|
|----------|------------|------------|-3--3-------|
|----------|------1--2--|-3--3----3--|------------|
|-8--------|---5--------|------------|---------6--|

|-----------|-------------|
|-----------|-------------|
|-----------|-------------|
|-----4--4--|-4--4--3--3--|

|-----------|------------|----------|------------|
|--------1--|------------|----------|------------|
|-----------|------------|-1--------|------1--2--|
|-1---------|---1--5--1--|----------|---5--------|

|-----------|-------------|------------|------------|
|-----------|----0--1--2--|-3--3-------|------------|
|-3----3----|-3-----------|------------|------------|
|-----------|-------------|---------3--|---5--6--7--|

|----------|------------|------------|------------|
|----------|------------|------------|-3--3-------|
|----------|------1--2--|-3--3----3--|------------|
|-8--------|---5--------|------------|---------6--|

|-----------|-------------|
|-----------|-------------|
|-----------|-------------|
|-----4--4--|-4--4--3--x--|

Chorus

|------------|-----------|------------|---------------|
|-/5---------|------5----|-6----6--6--|-8-8-8--6-6-6--|
|-------3----|-6---------|------------|---------------|
|------------|-----------|------------|---------------|

|------------|-----------|-------------|-------------|
|-/5---------|------5----|-6----6--6-6-|-8--8--6--6--|
|-------3----|-6---------|-------------|-------------|
|------------|-----------|-------------|-------------|

|------------|-----------|-------------|--------------|
|-/5---------|------5----|-6----6--6-6-|-8-8-8--6-----|
|-------3----|-6---------|-------------|--------------|
|------------|-----------|-------------|-----------6--|

|------------|------------|---------|---------|
|-/5---------|------5--6--|---------|---------|
|-------3----|-6----------|---------|---------|
|------------|------------|---------|---------|

|---------|---------|
|---------|---------|
|---------|---------|
|---------|---------|

|----------|------------|------------|-------------|
|-----1----|----1--5----|------------|-------------|
|----------|--3---------|-3------1-2-|-3-----1-3---|
|----------|------------|------------|----5--------|

|----------|------------|--------/5--|--------------|
|-----1----|----1--5----|------------|--5-3---------|
|----------|--3---------|-3----------|-------3-1----|
|----------|------------|------------|-----------5--|

Verse

|------------|------------|----------|-----------|
|------1-----|------------|----------|-----------|
|------------|------------|-1--------|--------1--|
|-1-------1--|---1--5--1--|----------|-----5-----|

|----------|-------------|------------|------------|
|----------|----0--1--2--|-3--3-------|------------|
|-3--------|-3-----------|------------|------------|
|----------|-------------|---------3--|---5--6--7--|

|----------|------------|------------|------------|
|----------|------------|------------|-3--3-------|
|----------|------1--2--|-3--3----3--|------------|
|-8--------|---5--------|------------|---------6--|

|-----------|-------------|
|-----------|-------------|
|-----------|-------------|
|-----4--4--|-4--4--3--3--|

|----------|-------------|----------|------------|
|----------|-1-----------|----------|------------|
|----------|-------------|-1--------|------1h=2--|
|-1--------|----1--5--1--|----------|---5--------|

|----------|-------------|-------------|-------------|
|----------|----0--1--2--|-3--3----3-3-|-3-----------|
|-3--------|-3-----------|-------------|-------------|
|----------|-------------|-------------|----5--6--7--|

|----------|------------|------------|------------|
|----------|------------|------------|-3--3-------|
|----------|------1--2--|-3--3----3--|------------|
|-8--------|---5--------|------------|---------6--|

|-----------|-------------|
|-----------|-------------|
|-----------|-------------|
|-----4--4--|-4--4--3--x--|

Chorus

|------------|------------|-------------|--------------|
|-/5---------|------/5----|-6----6--6-6-|-8-8-8--6-----|
|-------3----|-6----------|-------------|--------------|
|------------|------------|-------------|-----------6--|

|------------|------------|-------------|--------------|
|-/5---------|------/5----|-6----6--6-6-|-8-8-8--6-----|
|-------3----|-6----------|-------------|--------------|
|------------|------------|-------------|-----------6--|

|-----------|-----------|-------------|-------------|
|-5---------|------5----|-6----6--6-6-|-/8----6-----|
|------3----|-6---------|-------------|-------------|
|-----------|-----------|-------------|----------6--|

|------------|------------|---------|---------|
|-5\---------|------5--6--|---------|---------|
|-------3----|-6----------|---------|---------|
|------------|------------|---------|---------|

|---------|---------|
|---------|---------|
|---------|---------|
|---------|---------|

|----------|------------|------------|-------------|
|-----1----|----1--5----|------------|-------------|
|----------|--3---------|-3------1-2-|-3-----1-3---|
|----------|------------|------------|----5--------|

|----------|------------|--------5--|-3------------|
|-----1----|----1--5----|-----------|---5-3--------|
|----------|--3---------|-3---------|--------5-3---|
|----------|------------|-----------|--------------|

Solo

|----------|------------|-----------|----------|
|----------|------------|-----------|----------|
|-1--------|-------1----|-1---------|-1--------|
|----------|-3--5-------|--------5--|----------|

|-----------|-------------|-------------|-----------|
|-----------|-------------|-------------|-----------|
|-1----1----|-------1-----|-/5--1-------|-1----1----|
|-----------|-3--5-----5--|--------5----|-----------|

|-----------|------------|-----------|-------------|
|-----------|------------|-----------|----------3--|
|-1---------|-1--1-------|-1---------|-1----/5-----|
|--------3--|---------3--|--------3--|-------------|

|------------|------------|------------|-3--------|
|------------|------------|-3--3----3--|----------|
|-1--1----1--|-5--5----5--|------------|----------|
|------------|------------|------------|----------|

Chorus

|-------------|------------|--------------|------------|
|-/5\---------|------/5----|-6--6--6--6-6-|-8--8--6----|
|--------3----|-6----------|--------------|------------|
|-------------|------------|--------------|------------|

|-----------|-----------|-----------|-------------|
|-5---------|------5----|-6------6--|-8-8-8--6----|
|------3----|-6---------|-----------|-------------|
|-----------|-----------|-----------|-------------|

|-----------|-----------|-------------|--------------|
|-5---------|------5----|-6--6----6-6-|-8-8-8--6--6--|
|------3----|-6---------|-------------|--------------|
|-----------|-----------|-------------|--------------|

|------------|------------|------------|---------|
|-5\---------|------5--6--|---6-6-6----|---------|
|-------3----|-6----------|------------|---------|
|------------|------------|------------|---------|

|---------|---------|
|---------|---------|
|---------|---------|
|---------|---------|

Ending

|----------|------------|------------|--------------|
|-----1----|----1--5----|------------|--------------|
|----------|--3---------|-3------1-2-|-3-1----1-3---|
|----------|------------|------------|-----5--------|

|----------|------------|------------|-------------|
|-----1----|----1--5----|------------|-------------|
|----------|--3---------|-3------1-2-|-3--1-----1--|
|----------|------------|------------|-------5-----|

|------------|-------------|-----------|--------------|
|------------|-------------|-----------|--------------|
|------------|-1-----/3----|-1---------|-/3--1--------|
|-3----3--3--|----3--------|--------5--|--------5--3--|

||------------|-------------|-------------|---------------||
||o------1----|----1--/5----|-------------|--------------o||
||o-----------|--3----------|-6--6--------|--------3--1--o||
||--1---------|-------------|--------8-5--|-8-5-8---------|| repeat til fade





Comments


Popular The Band tabs & chords
It Makes No Difference Chords
Jemima Surrender Chords
Long Black Veil 2 Chords
The Weight Chords
To Kingdom Come Chords
Volcano Chords
Acadian Driftwood Intro Tabs
The Weight 1 Tabs
Old Time Religion Ukulele
Where Do We Go From Here Ukulele


Song lyrics



↑ Back to top | Tablatures and chords are parodies/interpretations of the original songs. You may use it for private study, scholarship, research or language learning purposes only
© 2014 AZChords.com Contact us | Privacy policy | DMCA | Add/correct tabs | Request tabs | Top 50 tabs