» » »

King Harvest (Has Surely Come) Bass tabs (ver.1)

Artists:  A B C D E F G H I J K L M N O P Q R S T U V W X Y Z # 

King Harvest (Has Surely Come) Bass tabs (ver.1)

The Band
Rating:
0/5 (0 votes)

Hard to play? Try these video lessons and learn fast.
                The Band
Bass Tab
Original Bassist: Rick Danko

Tempo=200BPM, 4/4 Time

Intro

|---------|---------|---------|-----|
|---------|---------|---------|-----|
|---------|---------|---------|-----|
|---------|---------|---------|-----|

Chorus

|----------|----------|----------|-----------|
|----------|----------|----------|-----------|
|-3--------|-1--------|----------|-6----5----|
|----------|----------|-4--------|-----------|

|----------|---------|----------|------|
|----------|---------|-7--------|------|
|-3--------|---------|----------|-8----|
|----------|---------|----------|------|

|-----------|
|-----------|
|-3---------|
|---------3h|

Verse

|-----------|------------|-----------|------------|
|-----------|------------|-----------|------------|
|-----------|------------|-----------|----------0h|
|-5-------3h|-5--5-----1h|-3-------1h|-3--3-------|

|-----------|------------|-----------|--------------|
|-----------|------------|-----------|--------------|
|-1---------|----------2h|-3-------2h|-3-3--3-------|
|---------0h|-1--1-------|-----------|---------5p3--|

|-----------|------------|-----------|------------|
|-----------|------------|-----------|------------|
|-----------|------------|-----------|----------3h|
|-5-------3h|-5--5-----0h|-1-------0h|-1--1-------|

|-----------|------------|-----------|--------------|
|-----------|------------|-----------|--------------|
|-5-------3h|-5--5-----6h|-7-------6h|-7---6h7-x-5--|
|-----------|------------|-----------|--------------|

|-------------|-------------|---------------|-----------|
|-------------|-------------|---------------|-----------|
|-------------|----------3--|-(3)--3--------|-----------|
|-5--3--5--5--|-6--5--6-----|-----------3-3-|-1----3----|

|-------------|-------------|--------------|-----------|
|-------------|-------------|--------------|-----------|
|-------------|----------3--|-(3)--3-------|-----------|
|-5--3--5--5--|-6--5--6-----|-----------3--|-1----3----|

|-------------|-------------|---------------|------------|
|-------------|-------------|---------------|------------|
|-------------|----------3--|-(3)--3--------|------------|
|-5--3--5--5--|-6--5--6-----|-----------3-3-|-1-1---3----|

|--------------|-------------|---------------|------------|
|--------------|-------------|---------------|------------|
|--------------|----------3--|-(3)--3--------|------------|
|-5--3--5--5-5-|-6--5--6-----|-----------3-3-|-1-1---3----|

|-----------|-----------|
|-----------|-----------|
|-----------|-----------|
|-5----3----|-6----1----|

Chorus

|----------|----------|----------|-----------|
|----------|----------|----------|-----------|
|-3--------|-1--------|----------|-6----5----|
|----------|----------|-4--------|-----------|

|----------|---------|----------|------|
|----------|---------|-7--------|------|
|-3--------|---------|----------|-8----|
|----------|---------|----------|------|

|-----------|
|-----------|
|-3---------|
|---------3h|

Verse

|-----------|------------|-----------|------------|
|-----------|------------|-----------|------------|
|-----------|------------|-----------|----------0h|
|-5-------3h|-5--5-----1h|-3-------1h|-3--3-------|

|-----------|------------|-----------|------------|
|-----------|------------|-----------|------------|
|-1---------|----------2h|-3-------2h|-3--3-------|
|---------0h|-1--1-------|-----------|----------3h|

|-----------|------------|-----------|------------|
|-----------|------------|-----------|------------|
|-----------|------------|-----------|----------3h|
|-5-------3h|-5--5-----0h|-1-------0h|-1--1-------|

|-----------|------------|-----------|--------------|
|-----------|------------|-----------|--------------|
|-5-------3h|-5--5-----6h|-7-------6h|-7---6h7-6h7--|
|-----------|------------|-----------|--------------|

|-------------|--------------|---------------|------------|
|-------------|--------------|---------------|------------|
|-------------|-----------3--|-(3)--3--------|------------|
|-5--3--5--5--|-6-6-5--6-----|-----------3-3-|-1-1---3----|

|--------------|-------------|----------------|-----------|
|--------------|-------------|---------x-10---|-----------|
|--------------|-------------|----------------|-----------|
|-5--3--5--5-5-|-6--5--6--8--|-(8)--8---------|-1----3----|

|-------------|-------------|---------------|------------|
|-------------|-------------|---------------|------------|
|-------------|----------3--|-(3)--3--------|------------|
|-5--3--5--5--|-6--5--6-----|-----------3-3-|-1--1--3----|

|--------------|-------------|----------------|-----------|
|--------------|-------------|---------x-10---|-----------|
|--------------|-------------|----------------|-----------|
|-5--3--5--5-5-|-6--5--6--8--|-(8)--8---------|-1----3----|

|-----------|-----------|
|-----------|-----------|
|-----------|-----------|
|-5----3----|-6----1----|

Chorus

|----------|----------|----------|-----------|
|----------|----------|----------|-----------|
|-3--------|-1--------|----------|-6----5----|
|----------|----------|-4--------|-----------|

|----------|---------|----------|------|
|----------|---------|-7--------|------|
|-3--------|---------|----------|-8----|
|----------|---------|----------|------|

|------|
|------|
|-3----|
|------|

Verse

|-----------|------------|-----------|------------|
|-----------|------------|-----------|------------|
|-----------|------------|-----------|----------0h|
|-5-------3h|-5--5-----1h|-3-------1h|-3--3-------|

|-----------|------------|-----------|--------------|
|-----------|------------|-----------|--------------|
|-1---------|----------2h|-3-------2h|-3-3--3-------|
|---------0h|-1--1-------|-----------|---------5p3--|

|-----------|------------|-----------|------------|
|-----------|------------|-----------|------------|
|-----------|------------|-----------|----------3h|
|-5-------3h|-5--5-----0h|-1-------0h|-1--1-------|

|-----------|------------|-----------|--------------|
|-----------|------------|-----------|--------------|
|-5-------3h|-5--5-----6h|-7-------6h|-7---6h7-6h7--|
|-----------|------------|-----------|--------------|

|-------------|-------------|----------------|-----------|
|-------------|-------------|---------x-10---|-----------|
|-------------|-------------|----------------|-----------|
|-5--3--5--5--|-6--5--6--8--|-(8)--8---------|-1----3----|

|--------------|-------------|---------------|------------|
|--------------|-------------|---------------|------------|
|--------------|----------3--|-(3)--3--------|------------|
|-5--3--5--5-5-|-6--5--6-----|-----------3-3-|-1-1---3----|

|--------------|-------------|----------------|-----------|
|--------------|-------------|---------x-10---|-----------|
|--------------|-------------|----------------|-----------|
|-5--3--5--5-5-|-6--5--6--8--|-(8)--8---------|-1----3----|

|-------------|-------------|---------------|------------|
|-------------|-------------|---------------|------------|
|-------------|----------3--|-(3)--3--------|------------|
|-5--3--5--5--|-6--5--6-----|-----------3-3-|-1--1--3----|

|-----------|-----------|
|-----------|-----------|
|-----------|-----------|
|-5----3----|-6----1----|

Chorus

|----------|----------|----------|-----------|
|----------|----------|----------|-----------|
|-3--------|-1--------|----------|-6----5----|
|----------|----------|-4--------|-----------|

|----------|---------|----------|------|
|----------|---------|-7--------|------|
|-3--------|---------|----------|-8----|
|----------|---------|----------|------|

|-----------|
|-----------|
|-3---------|
|---------3h|

Solo

|-----------|------------|-----------|------------|
|-----------|------------|-----------|------------|
|-----------|------------|-----------|----------0h|
|-5-------3h|-5--5-----1h|-3-------1h|-3--3-------|

|-----------|------------|------------|-----------------|
|-----------|------------|------------|-----------------|
|-1---------|----------2h|-3-----3--3-|-(3)------3-3----|
|---------0h|-1--1-------|------------|-----5p3------3--|

|-----------|------------|-----------|-------------|
|-----------|------------|-----------|-------------|
|-----------|------------|-----------|----------3--|
|-5-------3h|-5--5-----0h|-1-------0h|-1--1--5-----|

|-----------|------------|-----------|---------------|
|-----------|------------|-----------|---------------|
|-5-------3h|-5--5-----6h|-7-------6h|-7-7--6h7-6h7--|
|-----------|------------|-----------|---------------|

|--------------|--------------|---------------|------------|
|--------------|--------------|---------------|------------|
|--------------|-----------3--|-(3)--3--------|------------|
|-5--3--5--5-5-|-6--5-5-6-----|-----------3-3-|-1-1---3----|

|-------------|-------------|----------------|-----------|
|-------------|-------------|---------x-10---|-----------|
|-------------|-------------|----------------|-----------|
|-5--3--5--5--|-6--5--6--8--|-(8)--8---------|-1----3----|

|-------------|-------------|---------------|------------|
|-------------|-------------|---------------|------------|
|-------------|----------3--|-(3)--3--------|------------|
|-5--3--5--5--|-6--5--6-----|-----------3-3-|-1-1---3----|

|-------------|-------------|--------------|-----------|
|-------------|-------------|--------------|-----------|
|-------------|----------3--|-(3)----------|-----------|
|-5--3--5--5--|-6--5--x-----|----------x-1-|-1----3----|

|-----------|-----------|--------||
|-----------|-----------|-------o||
|-----------|-----------|-3-----o||
|-5----3----|-6----1----|--------||
            
Hard to play? Try these video lessons and learn fast. | Correct




comments powered by Disqus
↑ Back to top | Tablatures and chords are parodies/interpretations of the original songs. You may use it for private study, scholarship, research or language learning purposes only