>
 >
It Makes No Difference Live

It Makes No Difference Live Bass Tabs

The Band - It Makes No Difference Live chords, tabs, tablatures, lyrics

Guitar lessons | Add/correct | Request | Top 50 tabs Artists:  A B C D E F G H I J K L M N O P Q R S T U V W X Y Z 0-9

It Makes No Difference Live Bass Tabs – The Band

CD, Sheet music, Poster

Do you like It Makes No Difference Live? Share with your friends now
Bass Tabs
It Makes No Difference
The Band
Bass Tab
Original Bassist: Rick Danko

Tempo=128BPM, 4/4

Note: This is the live version from The Last Waltz. 
Its also the complete song from the soundtrack, but I've 
marked the bits the film version cuts out too.

Intro

|-------------|
|-------------|
|-------------|
|-----3--5----|

|-----------|-----------|--------------|-------------|
|-----------|-----------|--------------|-------------|
|-----------|--------5--|-6----6-5-6-5-|-8-----------|
|-6----6----|-3---------|--------------|----1--3--5--|

|------------|-------------|----------|-------------|
|------------|-------5--7--|-8--------|-8-----------|
|---------5--|-6--8--------|----------|----------5--|
|-6----6-----|-------------|----------|----6--8-----|

Verse

|-----------|-------------|----------|------------|
|-----------|----------5--|----------|------------|
|-6----6----|---6--6-8----|-8--------|---8--5--3--|
|-----------|-------------|----------|------------|

|-----------|------------|-------------|--------------|
|--------5--|-3--3-------|-------------|--------------|
|-----------|---------5--|-3----3----x-|-3--1--3--5---|
|-3---------|------------|-------------|--------------|

|----------|-------------|------------|-------------|
|----------|----------5--|-------5-8--|-------8--7--|
|-6--------|---6--6-8----|-8----------|--8-5--------|
|----------|-------------|------------|-------------|

|------------|-----------|--------------|---------|
|-5----5--5--|-3--3------|------------1-|-3-------|
|------------|-----------|-3--3--3--3---|---------|
|------------|-----------|--------------|----1----|

Chorus

|-----------|-----------|--------------|-------------|
|-----------|-----------|--------------|-------------|
|-----------|------5----|-6----6-5-6-5-|-8-----------|
|-6----6----|-3---------|--------------|----1--3--5--|

|------------|------------|------------|------------|
|------------|------------|----8----8--|------------|
|---------5--|-6----6-----|------------|------------|
|-6----6-----|---------8--|-6----------|---1--3--5--|

|-----------|-----------|--------------|-------------|
|-----------|-----------|--------------|-------------|
|-----------|------5----|-6----6-5-6-5-|-8-----------|
|-6----6----|-3---------|--------------|----1--3--5--|

|------------|------------|-------------|-------------|
|------------|------------|----8--------|-------------|
|---------5--|-6----6-----|-------------|-------------|
|-6----6-----|---------8--|-6-------6-6-|---1--1-3h5--|

Verse (Cut from film)

|-----------|--------------|--------------|-------------|
|-----------|--------------|--------------|-------5-8---|
|-----------|-------5-6-8--|-8--8---5-8-5-|-8--8--------|
|-6----6----|-6--6---------|--------------|-------------|

|-----------|-------------|----------|--------------|
|-----------|-------------|----------|--------------|
|-6----6----|-6--6--5--4--|-3--------|-3p1h3--3-1---|
|-----------|-------------|----------|--------------|

Chorus (Cut from film)

|-----------|-----------|--------------|-------------|
|-----------|-----------|--------------|-------------|
|-----------|------5----|-6----6-5-6-5-|-8-----------|
|-6----6----|-3---------|--------------|----1--1--5--|

|------------|------------|----------|------------|
|------------|------------|----------|------------|
|---------5--|-6----6-----|----------|--------5---|
|-6----6-----|---------8--|-6--------|---6--8-----|

Verse (Cut from film)

|----------|-------------|------------|-------------|
|----------|----------5--|-------5-8--|-------------|
|-6--------|---6--6-8----|-8----------|--8-5--------|
|----------|-------------|------------|-------6--5--|

|------------|------------|--------------|--------------|
|----5----5--|-3----3-----|--------------|--------------|
|------------|---------5--|-3--3--3--3-x-|-3--1--1-3h5--|
|-3----------|------------|--------------|--------------|

|----------|-----------|------------|-------------|
|----------|-----------|-------5-8--|-------------|
|-6--------|---6--6----|-5----------|--8-5--------|
|----------|-----------|------------|-------6--5--|

|------------|------------|--------------|---------|
|----5----5--|-3----3-----|------------1-|-3-------|
|------------|---------5--|-3--3--3--3---|---------|
|-3----------|------------|--------------|----1----|

Chorus (Cut from film)

|-----------|-----------|--------------|-------------|
|-----------|-----------|--------------|-------------|
|-----------|------5----|-6----6-5-6-5-|-8-----------|
|-6----6----|-3---------|--------------|----1--3--5--|

|------------|-------------|-----------|--------------|
|------------|-------------|----8------|-8------------|
|---------5--|-6--6--5-----|-----------|--------------|
|-6----6-----|----------8--|-6---------|----1--1-3-5--|

|-----------|------------|--------------|-------------|
|-----------|------------|--------------|-------------|
|-----------|---------5--|-6----6-5-6-5-|-8-----------|
|-6----6----|-3----3-----|--------------|----1--1--3--|

|------------|-------------|-----------|--------------|
|------------|-------5--7--|-8----8----|-8------------|
|---------5--|-6--8--------|-----------|--------------|
|-6----6-----|-------------|-----------|----1--1-3h5--|

Verse

|--------------|--------------|----------|-------------|
|--------------|--------------|----------|-------5-8---|
|--------------|-------5-6-8--|-8--------|--5-8--------|
|-6----x6----x-|-6--6---------|----------|-------------|

|----------|--------------|----------|------------|
|----------|--------------|----------|------------|
|-6--------|-6--6--5p3h5--|-3--------|---3--3-1---|
|----------|--------------|----------|------------|

Chorus

|-----------|------------|--------------|-------------|
|-----------|------------|--------------|-------------|
|-----------|---------5--|-6----6-5-6-5-|-8-----------|
|-6----6----|-3----3-----|--------------|----1--1--5--|

|------------|-------------|------------|--------------|
|------------|-------------|----8----8--|--5-8--8------|
|---------5--|-6--6--5-----|------------|----------10--|
|-6----6-----|----------8--|-6----------|--------------|

Bridge

|------------|--------------|-----------|--------------|
|------------|--------------|-----------|--------------|
|-8--------x-|-8---5h8-8-7--|-5----5----|-5----5-3-5---|
|------------|--------------|-----------|--------------|

|------------|------------|-------------|---------------|
|------------|------------|-------------|---------------|
|-6----6---x-|-6----6--5--|-3--3--3---x-|-3--1--3h5-6h7-|
|------------|------------|-------------|---------------|

|------------|---------------|-----------|-------------|
|------------|---------------|-----------|-------------|
|-8----8--8--|-8-5-8--8-7-6--|-5----5----|-5----5-3-5--|
|------------|---------------|-----------|-------------|

|-----------|------------|------------|------------|
|-----------|------------|------------|------------|
|-6----6----|-6----6--5--|-3----3---x-|-3----3--5--|
|-----------|------------|------------|------------|

|-------------|------------|
|-3--3--3---1-|-3----------|
|-------------|------------|
|-------------|----1--1----|

Chorus

|-----------|-----------|--------------|-------------|
|-----------|-----------|--------------|-------------|
|-----------|--------5--|-6----6-5-6-5-|-8-----------|
|-6----6----|-3---------|--------------|----1--3--5--|

|------------|-------------|-----------|-------------|
|------------|-------------|-----------|-------------|
|---------5--|-6--6--5-----|-----------|-------------|
|-6----6-----|----------8--|-6------6--|---1--1-3h5--|

|-----------|-----------|--------------|-------------|
|-----------|-----------|--------------|-------------|
|-----------|--------5--|-6----6-5-6-5-|-8-----------|
|-6----6----|-3---------|--------------|----1--3--5--|

|------------|--------------|-----------|-------------|
|------------|--------------|--------8--|-------------|
|---------5--|-6--6--6-5----|-----------|-------------|
|-6----6-----|-----------8--|-6---------|---1--1-3h5--|

Verse

|-----------|-------------|----------|-------------|
|-----------|-------------|----------|-------5-8---|
|-----------|------5-6-8--|-8--------|--5-8--------|
|-6----6----|-6-----------|----------|-------------|

|----------|--------------|----5------|-----------|
|----------|--------------|-----------|-----5--3--|
|-6--------|-6--6--5p3-5--|-3---------|-----------|
|----------|--------------|-----------|-----------|

Chorus

|-----------|------------|--------------|-------------|
|-----------|------------|--------------|-------------|
|-----------|---------5--|-6----6-5-6-5-|-8-----------|
|-6----6----|-3----3-----|--------------|----1--1--5--|

|------------|-------------|----------|-------------|
|------------|-------5--7--|-8--------|-------------|
|---------5--|-6--8--------|----------|----------5--|
|-6----6-----|-------------|----------|---6--6-8----|

Solo (Film cuts 8 bars, the 7th bar to the 14th)

|------------|--------------|------------|-------------| 
|------------|-----------5--|-------5-8--|-------------|  
|-6---x6---x-|-6--6--6-8----|-8----------|--8-5--------|
|------------|--------------|------------|-------6--5--|

|-------------|--------------|-------------|--------------| 
|----5----5-4-|-3--3--3--0---|-------------|--------------|
|-------------|------------4-|-3--3--3---1-|-3-1---1-3-5--|
|-3-----------|--------------|-------------|--------------|

|------------|-------------|------------|-------------| 
|------------|----------5--|-------5-8--|-------------|
|-6---x6---x-|-6--6---8----|-8----------|--8-5--------|
|------------|-------------|------------|-------6--5--|

|-------------|---------------|--------------|-----------| *Garth's sax comes in
|----5----5-4-|-3--3--3-------|------------1-|-3---------|  (last bar)
|-------------|---------5p3-5-|-3--3--3--3---|-----------|
|-3-----------|---------------|--------------|---1-------|  

|-----------|------------|--------------|-------------|
|-----------|------------|--------------|-------------|
|-----------|---------5--|-6----6-5-6-5-|-8-----------|
|-6----6----|-3----3-----|--------------|----1--3--3--|

|------------|-------------|------------|-------------|
|------------|-------------|----8----8--|-------------|
|---------5--|-6--6--5-----|------------|-------------|
|-6----6-----|----------8--|-6----------|---1--1-3-5--|

|-----------|------------|--------------|--------------|
|-----------|------------|--------------|--------------|
|-----------|---------5--|-6----6-5-6-5-|-8------------|
|-6----6----|-3----3-----|--------------|----1--1-3h5--|

|-----------|-------------|----------|-------------|
|-----------|-------5--7--|-8--------|-------------|
|--------5--|-6--8--------|----------|-------------|
|-6---------|-------------|----------|---1--1-3-5--|

|------------|--------------|-------------|--------------| *back to Robbie
|------------|--------------|-------------|--------5-8---|  (first bar)
|------------|-------5-6-8--|-8-----5-8-5-|-8-5-8--------|
|-6---x6---x-|-6--6---------|-------------|--------------|

|------------|--------------|----5---3---3-|-(3)------------|
|------------|--------------|----------5---|------5--3-0----|
|-6----6---x-|-6--6--6-5-4--|-3------------|-------------3--|
|------------|--------------|--------------|----------------|

|-----------|------------|--------------|-------------| *back to Garth
|-----------|------------|--------------|-------------|  (first bar)
|-----------|---------5--|-6----6-5-6-5-|-8-----------|
|-6----6----|-3----3-----|--------------|----1--3--5--|

|------------|-----------|-------------|------|
|------------|-----------|-------5--7--|-8----|
|---------5--|-6----6----|-6--8--------|------|
|-6----6-----|-----------|-------------|------|

|---------|-----*|
|---------|-----*|
|---------|-----*|
|---------|-----*|





Comments


Popular The Band tabs & chords
Daniel And The Sacred Harp Chords
It Makes No Difference 2 Chords
Long Black Veil 1 Chords
Twillight Chords
Volcano Chords
Acadian Driftwood Tabs
This Wheel's On Fire Tabs
Acadian Driftwood Ukulele
Lonesome Suzie Ukulele
Twilight Ukulele


Song lyrics



↑ Back to top | Tablatures and chords are parodies/interpretations of the original songs. You may use it for private study, scholarship, research or language learning purposes only
© 2014 AZChords.com Contact us | Privacy policy | DMCA | Add/correct tabs | Request tabs | Top 50 tabs