» » »

The Band, In A Station Bass tabs (ver.1)

Artists:  A B C D E F G H I J K L M N O P Q R S T U V W X Y Z # 

In A Station Bass tabs (ver.1)

The Band Tabs
 Rating:
4/5 (4 votes)
In A Station lessons Tabs too difficult? Try these video lessons and learn fast
                In a Station
The Band
Bass Tab


Intro

|----------------------------------------------------|
|-5-------5-----------------------------345----------|
|-----5-------5---3---5---3---5---6-6-----------3----|
|---------------------------------------------3------|

Verse

|------------------------------------------------|
|---------2~------3---2--------------------------|
|-3~--------------------5---5--3-0---------------|
|----------------------------------3----3-3-3----|

|------------------------------------------------|
|-------------------------2~------3---2----------|
|-3---3---3---3---3~--------------------5---5----|
|---------------3--------------------------------|

|-------------------------------------|
|-------------------------------------|
|-3-0---------------3---3---8-7-3-0---|
|-----3----x-3-3--------------------3-|

|---------------------------------------------------------------|
|--------------------0---2---3------------------5-5-5-5-5-5-5-5-|
|-3~-------------3---------------3~-----------------------------|
|---------------------------------------------------------------|

|-------------------------------------------------------|
|--------------------0---2---3----------345-------------|
|-3~-------------3---------------6--6------------3------|
|---------------------------------------------3---------|

Break

|-------------------------------------------------------|
|--------------------7---------5---------7-5------------|
|--------7------35-------57--------35--0-----7-8---5~---|
|-7-----------5----5---------3--------------------------|

Intro
Verse x2
Break
Verse
Break
            
Submit corrections

comments powered by Disqus
↑ Back to top | The Band Bass for In A Station. Lyrics for acoustic guitar and electric guitar. Tablatures and chords are parodies/interpretations of the original songs. You may use it for private study, scholarship, research or language learning purposes only