>
 >
Get Up, Jake

Get Up, Jake Guitar Tabs

The Band - Get Up, Jake chords, tabs, tablatures, lyrics

Guitar lessons | Add/correct | Request | Top 50 tabs Artists:  A B C D E F G H I J K L M N O P Q R S T U V W X Y Z 0-9

Get Up, Jake Guitar Tabs – The Band

CD, Sheet music, Poster

Do you like Get Up, Jake? Share with your friends now
Tabs

This tab is based on the studio outtake available on the 2000 re-release of The Band's 
the tab is my own.

Tuning: EADGBE (Standard)

***TAB***

Intro:

Guitar 1
E-------|
B-------|
G-------| x16
D-------|
A-------|
E--3h5--|

Guitar 2
E------5----------5--|
B---------------5----|
G--5h6------5h6------| x2
D--------------------|
A--------------------|
E--------------------|

The rest of the song features only one guitar part.

Chorus:
E----------------------------------------------5--5-7--7/9--|
B------------------------------7----------5--7--------------|
G--5h6-5h6------7----------------7-----6---------------7/9--|
D----------7----7h9-7---7h9---------------------------------|
A---------------------9-------------------------------------|
E-----------------------------------------------------------|

E------------------------5---5-----|
B-----------------7------5h7-5-----|
G--7-------7--------7--------------|
D--7h9-7---7h9------------------7--|
A--------9-------------------------|
E----------------------------------|

Final Chorus:
E----------------------------------------------5--5-7--7/9--|
B------------------------------7----------5--7--------------|
G--5h6-5h6------7----------------7-----6---------------7/9--|
D----------7----7h9-7---7h9---------------------------------|
A---------------------9-------------------------------------|
E-----------------------------------------------------------|

E-------------------7----------------------------|
B-------------------7---12b14-12b14-12b14r12p10--|
G--7-------7------7------------------------------|
D--7h9-7---7h9-----------------------------------|
A--------9---------------------------------------|
E------------------------------------------------|

Verse:
E--5----3----2----/9--/9---5----3----2----5--|
B--5----3----3----/10-/10--5----3----3----5--|
G--------------------------------------------|
D--------------------------------------------|
A--------------------------------------------|
E--------------------------------------------|

E--5----3----2----/9--/9---5----3----2---------5--------|
B--5----3----3----/10-/10--5----3----3-------5----------|
G-----------------------------------------/6-----5b6----|
D----------------------------------------------------7--|
A-------------------------------------------------------|
E-------------------------------------------------------|


***CHORDS***


Chorus:
A                  Bm
Get Up, Jake, it's late in the mornin'
    D                         A
the rain is pourin' and we got work to do.
                      Bm
Get Up, Jake, there's no need a-lyin',
    D                                A
You tell me that you're dyin', but I know it's not true.

A            G                 D          A
 Now, me and Jake, we work down on the river,
       G         D       A
on the ferry "Baltimore".
             G         D           A
And when Jake don't rise up in the mornin',
       G             D              A
People lined up all along the shore.

(Chorus)

Crap game will take you to the cleaners,
Rye whiskey to the grave.
River Woman don't you come no closer,
'Cause me and Jake got no time to save, Oh, oh,

(Chorus)

Dirty Dan he came up from Savannah,
Carried a mean streak in his eye.
Now, him and Jake both wanted Annabella,
I guess one man here has got to die.

Get Up, Jake, it's late in the mornin'
the rain is pourin' and we got work to do.
Get Up, Jake, there's no need a-dyin',
Annabelle's cryin' and it's all for you.





Comments


Popular The Band tabs & chords
The Unfaithful Servant Bass Tabs
Don't Ya Tell Henry Chords
Long Black Veil 1 Chords
The Promised Land Chords
Daniel Daniel And The Sacred Harp Tabs
The Last Waltz Tabs
Caledonia Mission Ukulele
Loving You Is Sweeter Than Ever Ukulele
Mystery Train Ukulele
Twilight Ukulele


Song lyrics



↑ Back to top | Tablatures and chords are parodies/interpretations of the original songs. You may use it for private study, scholarship, research or language learning purposes only
© 2014 AZChords.com Contact us | Privacy policy | DMCA | Add/correct tabs | Request tabs | Top 50 tabs