>
 >
A Change Is Gonna Come

A Change Is Gonna Come Bass Tabs

The Band - A Change Is Gonna Come chords, tabs, tablatures, lyrics

Guitar lessons | Add/correct | Request | Top 50 tabs Artists:  A B C D E F G H I J K L M N O P Q R S T U V W X Y Z 0-9

A Change Is Gonna Come Bass Tabs – The Band

CD, Sheet music, Poster

Do you like A Change Is Gonna Come? Share with your friends now
Bass Tabs
The Band
Bass Tab
Original Bassist: Levon Helm (this is what I've heard, not Rick apparently)

Tempo=100BPM, 4/4 time, Drop D Tuning

Intro

|---------|---------|-------------|-----------|
|---------|---------|-------------|-----------|
|---------|---------|-6--5--3--1--|-----------|
|---------|---------|-------------|-4----3----|

Verse/Chorus

|----------|----------|----------|-----------|
|----------|----------|----------|-----------|
|-1--------|-1--------|-1--------|-5------5--|
|----------|----------|----------|-----------|

|-----------|----------|----------|------------|
|-----------|----------|----------|------------|
|-3----3----|-3--------|----------|------------|
|-----------|----------|-5--------|-3----3--5--|

|----------|----------|----------|-----------|
|----------|----------|----------|-----------|
|-1--------|-1--------|-3--------|------5----|
|----------|----------|----------|-7---------|

|-----------|----------|----------|------|
|-----------|----------|----------|------|
|-----------|----------|-1--------|------|
|-5----5----|-3--------|----------|-3----|

Verse/Chorus

|----------|----------|----------|-----------|
|----------|----------|----------|--------5--|
|-1--------|-1--------|-1--------|-5---------|
|----------|----------|----------|-----------|

|----------|----------|----------|------|
|----------|----------|----------|------|
|-3--------|-3--------|----------|------|
|----------|----------|-5--------|-3----|

|----------|-----------|----------|-----------|
|----------|-----------|----------|-----------|
|-1--------|-1------5--|-3--------|------5----|
|----------|-----------|----------|-7---------|

|----------|-----------|--------3--|-(3)-----------|
|----------|-----------|-----------|------5--------|
|----------|-----------|-1---------|---------5--8--|
|-5--------|-3------5--|-----------|---------------|

Bridge

|----------|-----------|------------|--------------|
|----------|-----------|------------|--------------|
|-3--------|-3------3--|------------|-----------1--|
|----------|-----------|-5------3-0-|-5-5-5--5-----|

|----------|----------|------------|--------------|
|----------|----------|------------|--------------|
|-3--------|-3--------|------------|-----------1--|
|----------|----------|-5------3-0-|-5-5-5--5-----|

|----------|-----------|----------|------------|
|----------|-----------|----------|-------5----|
|-3--------|-3------3--|----------|---------5--|
|----------|-----------|-5--------|-5----------|

|----------|------------|-----------|------------|
|----------|------------|-3---------|------------|
|-3--------|-3----3--7--|------6----|-5----3-----|
|----------|------------|-----------|---------3--|

Verse/Chorus

|----------|----------|----------|-------------|
|----------|----------|----------|-------------|
|-1--------|-1--------|-5--------|-5----10--8--|
|----------|----------|----------|-------------|

|----------|-----------|----------|-------------|
|----------|-----------|----------|-------------|
|-3--------|-3------1--|----------|-------------|
|----------|-----------|-5--------|-3----3-5-7--| < last three 8ths dotted

|----------|------------|-----------|-------------|
|----------|---------3--|-----------|-------------|
|-1--------|-1----5-----|-3------3--|-------5--5--|
|----------|------------|-----------|-7--7--------|

|----------|------------|----------|-------------|
|----------|------------|----------|----5--3-----|
|----------|------------|-1--------|-1--------5--|
|-5--------|-3----3--5--|----------|-------------|

Solo

|------------|--------------|-----------|-------------|
|------------|--------------|-----------|-3-5---5-----|
|-3------1---|-3-3-3--3--1--|---------5-|----------5--|
|----------5-|--------------|-5---------|-------------|

|------------|-------------|------------|-------------|
|------------|-------------|--------3---|-3-5---------|
|-3------1---|-3-3---3--1--|----------5-|----------1--|
|----------5-|-------------|-5----------|-------5-----|

|-----------|------------|-----------|------------|
|-----------|------------|-----------|------5-----|
|-3-------1-|-3----3--1--|-----------|--------5---|
|-----------|------------|-5------3--|-5----------|

|------------|-5-----------|-------------|------------|
|----------5-|----5--------|-3---3-1--1--|------------|
|-3----3-----|-------7--3--|-------------|-5--3-------|
|------------|-------------|-------------|-------3----|

Verse/Chorus

|----------|----------|----------|-------------|
|----------|----------|----------|-------------|
|-1--------|-1--------|-5--------|-5----10--8--|
|----------|----------|----------|-------------|

|----------|------------|----------|------------|
|----------|------------|----------|------------|
|-3--------|-3------3-1-|----------|------------|
|----------|------------|-5--------|-3----3--5--|

|----------|---------------|------------|-----------|
|----------|---------------|------------|-----------|
|-1--------|-1----/8--/10--|-3------3-x-|------5----|
|----------|---------------|------------|-7---------|

|-----------|-----------|-----------|------------|
|-----------|-----------|-----------|------------|
|-----------|-----------|-----------|------------|
|-5----5----|-5----5----|-3----3----|-3----5--7--|

|----------|---------|-------------|-----------|
|----------|---------|-------------|-----------|
|-1--------|---------|-6--5--3--1--|-----------|
|----------|---------|-------------|-3----3----|

|------*|
|------*|
|-1----*|
|------*|





Comments


Popular The Band tabs & chords
Acadian Driftwood 1 Chords
The Rumor Chords
The Weight 3 Chords
When I Get My Reward Chords
When You Awake Chords
Whispering Pines Chords
Caledonia Mission Ukulele
I Shall Be Released Ukulele
King Harvest Has Surely Come Ukulele
Last Train From Memphis Ukulele


Song lyrics



↑ Back to top | Tablatures and chords are parodies/interpretations of the original songs. You may use it for private study, scholarship, research or language learning purposes only
© 2014 AZChords.com Contact us | Privacy policy | DMCA | Add/correct tabs | Request tabs | Top 50 tabs