» » »

The Band, Acadian Driftwood Tabs (ver.2)

Artists:  A B C D E F G H I J K L M N O P Q R S T U V W X Y Z # 

Acadian Driftwood Tabs (ver.2)

The Band Tabs
 Rating:
4.2/5 (5 votes)
Acadian Driftwood lessons Tabs too difficult? Try these video lessons and learn fast
                The Band


- I figured this sounded a little more like the recording.

INTRO

E|---------------------------|-----1---0---1-----------|
B|---------------------------|-----1---1---1---3-------|
G|-------3--3----------------|-----2---3---2---3-------|
D|--3----3--3h5p3------------|-----3---3---0---3-------|
A|--3h5----------------------|-----3---3-------5-------|
E|-----------------3b4b3--1--|-----1-----------3-------|


VERSE

E|---1-------5---3------5---6-------3---------1-------5---3------1-------3-------|
B|---1-------3---5------5---6-------3---------1-------3---2------3-------3-------|
G|---2-------3---3------7---7-------3---------2-------3---0------3-------3-------|
D|---3-------5---5------7---8-------3---------3-------5---2------3-------3-------|
A|---3-------3---3------5---6-------5---------3-------3---0------1-------5-------|
E|---1------------------------------3---------1--------------------------3-------|


CHORUS

E|---1---1---3---3---5---3---1---3---------1---1---3---3---5---3---1-------3---1---|
B|---1---3---3---5---6---5---3---3---------1---3---3---5---6---5---3---3---3---1---|
G|---2---3---3---5---7---5---3---3---------2---3---3---5---7---5---3---3---3---2---|
D|---3---3---3---5---7---5---3---3---------3---3---3---5---7---5---3---3---3---3---|
A|---3---1---5---3---5---3---1---5---------3---1---5---3---5---3---1---0---5---3---|
E|---1-------3-------------------3---------1-------3-----------------------3---1---|
            
Submit corrections

comments powered by Disqus
↑ Back to top | The Band Tabs for Acadian Driftwood. Lyrics for acoustic guitar and electric guitar. Tablatures and chords are parodies/interpretations of the original songs. You may use it for private study, scholarship, research or language learning purposes only