>
 >
Mongolian She-devil

Mongolian She-devil Guitar Tabs

The Bags - Mongolian She-devil chords, tabs, tablatures, lyrics

Guitar lessons | Add/correct | Request | Top 50 tabs Artists:  A B C D E F G H I J K L M N O P Q R S T U V W X Y Z 0-9

Mongolian She-devil Guitar Tabs – The Bags

CD, Sheet music, Poster

Do you like Mongolian She-devil? Share with your friends now
Tabs
-------------------------------------------------------------------------------
                             Mongolian-She Devil by The Bags
-------------------------------------------------------------------------------

Tuning: Standard(EADGBE)

~ means hold the note out

Intro Riff (Riff # 1)

e|------------------|
B|------------------|
G|------------------|
D|--2~--5~--7~--9~--|  X 4
A|--2~--5~--7~--9~--|
E|--0~--3~--5~--7~--|

Riff # 2

e|-------------------------|
B|-------------------------|
G|--9------7-------4-------|   X 2
D|--9-X8---7--X8---4--X8---|
A|--7------5-------2-------|
E|-------------------------|

Riff # 3 (right after riff #2 pretty fast transition)

e|-------------|
B|-------------|
G|-------------|
D|--5--7--9----| X 2
A|--5--7--9----|
E|--3--5--7----|

Riff # 4

e|-------------------|
B|-------------------|
G|-------------------|
D|--2~--4--2--4--2---|
A|--2~--4--2--4--2---|
E|--0~--2--0--2--0---|

Go She Devil! Riff

e|--------------------------|
B|--------------------------|
G|----------9--7--9--7--9---| X 3 then one more time and end on: D|---7~--|
D|--9-------9--7--9--7--9---|                                    A|---7~--|
A|--9--X8---7--5--7--5--7---|                                    E|---5~--|
E|--7-----------------------|


Play in this order:

Riff 1
Riff 2
Riff 3
Riff 4
Go She Devil Riff
Riff 2
Riff 3
Riff 4
Go She Devil! Riff, but end on G|--7~----------|
                               D|--7~--7~--2~--|
                               A|--5~--7~--2~--|
                               E|------5~--0~--|
(Solo) Gtr 2 plays Riff 1
Riff 2
Riff 3
End:    D|--9--7--9--7--9--|
        A|--9--7--9--7--9--|
        E|--7--5--7--5--7--|

Great Song...100% sure of accuracy. Enjoy!

===============================================================================





Comments


Popular The Bags tabs & chords
Caveman Rejoice Bass Tabs
Cavemen Rejoice Bass Tabs
Caveman Rejoice Tabs
Cavemen Rejoice Tabs
Cavemen Rejoice 1 Tabs
Tick Panic Tabs


Song lyrics



↑ Back to top | Tablatures and chords are parodies/interpretations of the original songs. You may use it for private study, scholarship, research or language learning purposes only
© 2014 AZChords.com Contact us | Privacy policy | DMCA | Add/correct tabs | Request tabs | Top 50 tabs