» » »

Caveman Rejoice Bass tabs (ver.1)

Artists:  A B C D E F G H I J K L M N O P Q R S T U V W X Y Z # 

Caveman Rejoice Bass tabs (ver.1)

The Bags
Rating:
5/5 (2 votes)

Hard to play? Try these video lessons and learn fast.
                -------------------------------------------------------------------------------
-------------------------------------------------------------------------------


Tuning: EADG (standard tunning)

Verse
G|---------------------------------------------------------------------------|
D|---------------------------------------------------------------------------|
A|---------------------------------------------------------------------------|
E|-0-0---3-0-3---3-3-0-3-5---0-0---3-0-3---3-3-0-3-5-------------------------|

Chorus
G|---------------------------------------------------------------------------|
D|---------------------------------------------------------------------------|
A|----------------5-5---5-7--------------------5-5---5-7---------------------|
E|-0-0--4-5-6-7-------7---------0-0--4-5-6-7-------7-------------------------|

(Verse)

(Chorus)

(Verse During 1st Part Of Guitar Solo)

2nd Part Of Guitar Solo
G|---------------------------------------------------------------------------|
D|---------------------------------------------------------------------------|
A|---------------------------------------------------------------------------|
E|-0--0--0--0--0--0--0--0--0--0--0--0--0--0--0--0--0--0--0--0--0--0--0--0--0-|

3rd part Of Guitar Solo
G|----------------------------------------------------------------------------------|
D|----------------------------------------------------------------------------------|
A|-5555-----5-5--------5-5-----5-5-------5-5----5-5-------5-5---5-5----------5555---|
E|-------0------3-2-3-------0------3-2-3-----0------3-2-3-----0-----3-2-3---------0-|

(Verse)

(Ending)
G|-------------------------------------------------E----S----------------------|
D|-------------------------------------------------N----O----------------------|
A|-------------------------------------------------D----N----------------------|
E|-0--0--0--0--0--0--0--0--0--0--0--0--0----------------G----------------------|


The exact number of times to play each section is not given. Listen to the song and it 
very easy to figure out when to start each section and when to end each one. I have given 
basic outline of when to play each section to give help to whoever may need it.


===============================================================================
            
Hard to play? Try these video lessons and learn fast. | Correct




comments powered by Disqus
↑ Back to top | Tablatures and chords are parodies/interpretations of the original songs. You may use it for private study, scholarship, research or language learning purposes only