» » »

The Bags, Caveman Rejoice Tabs (ver.1)

Artists:  A B C D E F G H I J K L M N O P Q R S T U V W X Y Z # 

Caveman Rejoice Tabs (ver.1)

The Bags Tabs
 Rating:
4/5 (10 votes)
Caveman Rejoice lessons Tabs too difficult? Try these video lessons and learn fast
1
                
Tuning:standrd

e|---------------------------|
B|---------------------------|
G|---------------------------|x3
D|---------------------------|
A|--2-2--5-2-5--55-2-5-7-----|
E|--0-0--3-0-3--33-0-3-5-----|

the fourth time do this one
                 ...PM...PM
e|---------------------------|
B|---------------------------|
G|---------------------------|
D|---------------------------|
A|--2-2--5-2-5---------------|
E|--0-0--3-0-3---000-000-----|


e|---------------------------|
B|---------------------------|
G|---------------------------|x3
D|---------------------------|
A|--2-2--5-2-5--55-2-5-7-----|
E|--0-0--3-0-3--33-0-3-5-----|


e|----------------------------------|
B|----------------------------------|
G|----------------------------------|
D|---------------x-x-x-x-x-x-x-x----|
A|--2-2--5-2-5---x-x-x-x-x-x-x-x----|
E|--0-0--3-0-3---x-x-x-x-x-x-x-x----|

e|---------------------------------|
B|---------------------------------|
G|---------------------------------|x3
D|---------------------------------|
A|--2-2--5-2-5--55-2-5-7----7~~~---|
E|--0-0--3-0-3--33-0-3-5--5--------|

e|---------------------------|
B|---------------------------|
G|---------------------------|
D|---------------------------|x4
A|----2-------5555555--------|
E|--0---0123--3333333--------|

e|---------------------------|
B|---------------------------|
G|---------------------------|x3
D|---------------------------|
A|--2-2--5-2-5--55-2-5-7-----|
E|--0-0--3-0-3--33-0-3-5-----|
                ................PM.
e|-----------------------------------|
B|-----------------------------------|
G|-----------------------------------|
D|-----------------------------------|
A|--2-2--5-2-5-----------------------|
E|--0-0--3-0-3---0-0-0-0-0-0-0-0-----|

e|-----------------------------------|
B|-----------------------------------|
G|-----------------------------------|x3
D|-----------------------------------|
A|--2-2--5-2-5--55-2-5-7------7~~~---|
E|--0-0--3-0-3--33-0-3-5--5-5--------|

e|---------------------------|
B|---------------------------|
G|---------------------------|
D|---------------------------|x4
A|----2-------5555555--------|
E|--0---0123--3333333--------|


SOLO

i havent figuered out the solo yet but when i do ill put it up ryt away


e|---------------------------|
B|---------------------------|
G|---------------------------|
D|---------------------------|x3
A|-5-5--------5-5------------|
E|-----3-2-3-------0~~-------|

|------------------------------|
B|-----------------------------|
G|-----------------------------|
D|-----------------------------|
A|-5-5--------5555-------------|
E|-----3-2-3---------0~~~------|

e|---------------------------|
B|---------------------------|
G|---------------------------|
D|---------------------------|x3
A|-5-5--------5-5------------|
E|-----3-2-3-------0~~-------|

|------------------------------|
B|-----------------------------|
G|-----------------------------|
D|-----------------------------|
A|-5-5--------5555-------------|
E|-----3-2-3-------------------|

e|---------------------------|
B|---------------------------|
G|---------------------------|
D|---------------------------|x3
A|-5-5--------5-5------------|
E|-----3-2-3-------0~~-------|

|-------------------------------|
B|------------------------------|
G|------------------------------|
D|-----------------7777777777---|
A|-5-5--------5555-5555555555---|
E|-----3-2-3--------------------|

|------------------------------|
B|-----------------------------|
G|-----------------------------|
D|-101010101010----10~~~-------|
A|-8-8-8-8-8-8--88-------------|
E|-----------------------------|

e|---------------------------|
B|---------------------------|
G|---------------------------|x7
D|---------------------------|
A|--2-2--5-2-5--55-2-5-7-----|
E|--0-0--3-0-3--33-0-3-5-----|

e|-------------------------------|
B|-------------------------------|
G|-------------------------------|x3
D|-------------------------7-~---|
A|--2-2--5-2-5-~---5-2-5-7-5-~---|
E|--0-0--3-0-3-~---3-0-3-5-------|
            
Submit corrections

comments powered by Disqus
↑ Back to top | The Bags Tabs for Caveman Rejoice. Lyrics for acoustic guitar and electric guitar. 1 Tablatures and chords are parodies/interpretations of the original songs. You may use it for private study, scholarship, research or language learning purposes only