» » »

Lawyer Bass tabs (ver.1)

Artists:  A B C D E F G H I J K L M N O P Q R S T U V W X Y Z # 

Lawyer Bass tabs (ver.1)

The Audition
Rating:
4/5 (1 vote)

Hard to play? Try these video lessons and learn fast.
                Time: 3:08
Tuning: DADG
            Bassist of Push!Push!PULL!


/ - Slide down
~ - Hold note
# - Off beat

Intro/chorus
G|--------------------------------------|
D|--------------------------------------|
A|-----------------444444446666696------| x2
D|-333333333333131----------------------|

Verse 1
G|--------------------------------------|
D|-----------------3--------------------|
A|------------34----4-------------------| 
D|-3/---23/-----------------------------|

G|------------------------------------------------------|
D|-----------------------------------------3------------|
A|---------------------------3-44-44-44-44---44-44-44-44|
D|-33-33-33-33-1-33-33-33-33----------------------------|

Pre-chorus
G|--------------------------------------|
D|--------------------------------------|
A|-------------------44444444-33333333--| 
D|-33333333-11111111--------------------|

G|--------------------------------------|
D|--------------------------------------|
A|--------------------------------------|
D|-11111111-44444444-33333333-4---------|

Chorus
G|--------------------------------------|
D|--------------------------------------|
A|-----------------444444446666696------| x4
D|-333333333333131----------------------|

Chorus ending
G|--------------------------------------|
D|--------------------------------------|
A|--------------------------------------| 
D|--3~-2~-3~-3--------------------------|

Verse 2
G|-----------------------------------------|
D|-----------------------3-----------------|
A|-----------#-#-#--4-----4----------------| 
D|-3/---23---3-3-3-------------------------|

G|------------------------------------------------------|
D|-----------------------------------------3------------|
A|---------------------------3-44-44-44-44---44-44-44-44|
D|-33-33-33-33-1-33-33-33-33----------------------------|

Pre-chorus
G|--------------------------------------|
D|--------------------------------------|
A|-------------------44444444-33333333--| 
D|-33333333-11111111--------------------|

G|--------------------------------------|
D|--------------------------------------|
A|--------------------------------------|
D|-11111111-44444444-33333333-4---------|

Bridge
Just guitar and vocals till 2:19

G|--------------------------------------|
D|--------3-----------------------------|
A|--4-3-4-------------------------------| 
D|--------------------------------------|

G|--------------------------------------|
D|--------3~-------3~-------------------|
A|--4-3-4-----4~-------4444-4-4---------| 
D|--------------------------------------|

Chorus
G|--------------------------------------|
D|--------------------------------------|
A|-----------------444444446666696------| x4
D|-333333333333131----------------------|

Outro
G|--------------------------------------|
D|--------------------------------------|
A|--------------------------------------| 
D|--3~-2~-3~-3--------------------------|
            
Hard to play? Try these video lessons and learn fast. | Correct




comments powered by Disqus
↑ Back to top | Tablatures and chords are parodies/interpretations of the original songs. You may use it for private study, scholarship, research or language learning purposes only