>
 >
Heaven For The Weather

Heaven For The Weather Guitar Tabs

The Audition - Heaven For The Weather chords, tabs, tablatures, lyrics

Guitar lessons | Add/correct | Request | Top 50 tabs Artists:  A B C D E F G H I J K L M N O P Q R S T U V W X Y Z 0-9

Heaven For The Weather Guitar Tabs – The Audition

CD, Sheet music, Poster

Do you like Heaven For The Weather? Share with your friends now
Bass TabsTabs
Tuning: Dropped Db (eb bb gb db ab Db)

Great song and pretty easy once you get the hang of it! Get your Rock ON!

Intro:
|--7~---------------|
|------7~-----------|
|----------7~-------|
|-------------------|
|-------------------|
|-------------------|

Verse:
|-------------------------------------------------------------------|
|-------------------------------------------------------------------|
|-------------------------------------------------------------------|
|----------------------------------------------------------------x4-|
|-------------------------------------------------------------------|
|--4--7/9~--4~--5-4-5-------4--7/9~--4~--2-0-2----------------------|

Pre-Chorus:
|------------------------------------------------------------|
|------------------------------------------------------------|
|--------11-11-11--9-9-9-----------11-11-11-11---------------|
|---9-9--11-11-11--9-9-9--9-9-9-9--11-11-11-11------------x2-|
|---9-9--9--9--9---7-7-7--9-9-9-9--9--9--9--9----------------|
|---9-9-------------------9-9-9-9----------------------------|

Chorus (Lead):
|------------------------------------------------------------------|
|------------------------------------------------------------------|
|------------------------------------------------------------------|
|---------------------------------------------------------------x4-|
|---7-9-7-5-----7-9-7-5----5----7-9-7-5----5----5-7-5--------------|
|-----------9-----------9----9----------9----9--------9------------|

Chorus (Rhythm):
|-----------------------------------------------------------|
|-----------------------------------------------------------|
|-----------------------------------------------------------|
|--9-9-9-9-4-4-4-5-5-5-4-5-------------------------x4-------|
|--9-9-9-9-4-4-4-5-5-5-4-5----------------------------------|
|--9-9-9-9-4-4-4-5-5-5-4-5----------------------------------|
|=========PM=======|

Verse:
|-------------------------------------------------------------------|
|-------------------------------------------------------------------|
|-------------------------------------------------------------------|
|----------------------------------------------------------------x4-|
|-------------------------------------------------------------------|
|--4--7/9~--4~--5-4-5-------4--7/9~--4~--2-0-2----------------------|

Pre-Chorus:
|------------------------------------------------------------|
|------------------------------------------------------------|
|--------11-11-11--9-9-9-----------11-11-11-11---------------|
|---9-9--11-11-11--9-9-9--9-9-9-9--11-11-11-11------------x2-|
|---9-9--9--9--9---7-7-7--9-9-9-9--9--9--9--9----------------|
|---9-9-------------------9-9-9-9----------------------------|

Chorus (Lead):
|------------------------------------------------------------------|
|------------------------------------------------------------------|
|------------------------------------------------------------------|
|---------------------------------------------------------------x4-|
|---7-9-7-5-----7-9-7-5----5----7-9-7-5----5----5-7-5--------------|
|-----------9-----------9----9----------9----9--------9------------|

Chorus (Rhythm):
|-----------------------------------------------------------|
|-----------------------------------------------------------|
|-----------------------------------------------------------|
|--9-9-9-9-4-4-4-5-5-5-4-5-------------------------x4-------|
|--9-9-9-9-4-4-4-5-5-5-4-5----------------------------------|
|--9-9-9-9-4-4-4-5-5-5-4-5----------------------------------|
|=========PM=======|

Post Chorus:
|--------------------------------------|
|--------------------------------------|
|----7-9-11-9-11-14-16~-----16---------|
|--9-7-9-11-9-11-14-16~------x------x1-|
|--9-5-7-9--7-9--12-14~-----14---------|
|--9-----------------------------------|

Interlude (Breakdown)
"Baby, tell me what you want..."
|--------------------------------------------------------------------------|
|--------------------------------------------------------------------------|
|--16----------15-------------14-------------13-----------12---------------|
|---x----x16---x------x16---x------x16----x------x8---x-----x8----------x2-|
|--14----------13-------------12-------------11-----------10---------------|
|--------------------------------------------------------------------------|
|=====================================PM===================================|

Breakdown
"Don't even get me started..."   "Baby, Save me..."
|----7-----7-----7----7---------|--------------------------------------|
|----7-----7-----7----7---------|--------------------------------------|
|----7-----7-----7----7---------|--------------------------------------|
|-------------------------------|-------------4-5------...to Chorus----|
|-------------------------------|-------------4-5----------------------|
|-------------------------------|-------------4-5----------------------|

Chorus to End!





Comments


Popular The Audition tabs & chords
Approach The Bench Bass Tabs
Heaven For The Weather Bass Tabs
Make It Rain Bass Tabs
You've Made Us Conscious Bass Tabs
Los Angeles 2 Chords
Warm Me Up Chords
Dont Be So Hard Tabs
Los Angeles Tabs
Sign. Steal. Deliver Tabs
Smoke And Mirrors Tabs


Song lyrics



↑ Back to top | Tablatures and chords are parodies/interpretations of the original songs. You may use it for private study, scholarship, research or language learning purposes only
© 2014 AZChords.com Contact us | Privacy policy | DMCA | Add/correct tabs | Request tabs | Top 50 tabs