» » »

The Death Of The Kingfollow The Sun Tabs (ver.1)

Artists:  A B C D E F G H I J K L M N O P Q R S T U V W X Y Z # 

The Death Of The Kingfollow The Sun Tabs (ver.1)

The Anniversary
Rating:
0/5 (0 votes)

Hard to play? Try these video lessons and learn fast.
                The Death of the King – The Anniversary

Tuning: standard (eBGDAE)

Intro/Verse 

Fuzz distortion
e|--------------------------------------------------------------------------|
B|--------------------------------------------------------------------------|
G|-------6-4h6p4------------------------------------------------------------|
D|---------------6------4///-------7-7-7-------6~---------------------------|
A|-4--4-4-------------------------------------------------------------------|
E|----------------2-2-2------5-5-5-------4-4-4------------------------------|

e|--------------------------------------------------------------------------|
B|--------------------------------------------------------------------------|
G|-------6-4h6p4------------------------------------------------------------|
D|---------------6------4///-------7-7---7-6-4------------------------------|
A|-4--4-4-------------------------------------------------------------------|
E|----------------2-2-2------5-5-5-----4------------------------------------|

E|--------------------------------------------------------------------------|
B|--------------------------------------------------------------------------|
G|-------6-4h6p4---------------------------6-4h6p4--------------------------|
D|---------------6-------4///------7-7-6-4--------6-------------------------|
A|-4--4-4-------------------------------------------------------------------|
E|-----------------2-2-2-----5-5-5------------------------------------------|

Each line represents approximately one of the riffs that is played over the
 verses (“oh my god, you are a dangerous lover”) this is played very freely,
 with a swing. So try to get the feeling and don’t worry about hitting the
 notes exactly the way I’ve written them.


Chorus

Both guitars (fuzz)

“Bang on the drum, is it loud enough to shake you?”

*notes in ( ) are optional
   A5          G#5         C#5/G#      F#5             
e|--------------------------------------------------------------------------|
B|--------------------------------------------------------------------------|
G|--------------------------------------------------------------------------|
D|-------------------------6--6--6--6-(4)(4)(4)(4)--------------------------|
A|(7)(7)(7)(7)(6)(6)(6)(6)-4--4--4--4--4--4--4--4---------------------------|
E|-5—-5—-5--5--4--4--4—-4--4--4--4--4--2--2--2--2---------------------------|

The chorus is played at two different rhythms with one being very on beat 
and steady while the other is played more freely, you’ll hear it when it
 comes



The breakdown
 C#5/G#  E/B   F#5      G#  C#5/G#  E/B  F#5     E  
e|--------------------------------------------------------------------------|
B|--------------------------------------------------------------------------|
G|-6--6---9~-----------------6--6---9~--------------------------------------|
D|-6--6---9~--4--4--4---6~---6--6---9~--4--4--4--2--------------------------|
A|-4--4-/-7~--4--4--4---6~---4--4---7~--4--4--4--2--------------------------|
E|(4)(4)-(7)~-2--2--2-/-4~--(4)(4)-(7)~-2--2--2--0--------------------------|

This is what Adrianne plays on the Moog

e|-------4-----------------------------4------------------------------------|
B|---------7-5---------------------------7-5--------------------------------|
G|-6-4-6-------6-4---------------6-4-6-------6-4-------6-4------------------|
D|-----------------4-2-4-2-4-/6------------------4-2-4-----6----------------|
A|--------------------------------------------------------------------------|
E|--------------------------------------------------------------------------|

Then go back to the chorus and play it again but this time use all 
the optional notes (unless you really don’t want to) and when they 
sing “scream it loud for the last time keep strumming the G#5

Then it will go to another transitional section that is play with little 
to no overdrive and sounds like it has a chorus effect

Guitar 1 (fuzz)
e|--------------------------------------------------------------------------|
B|--------------------------------------------------------------------------|
G|-6-------------------------------5----------------------------------------|
D|-6-------------------------------5----------------------------------------|
A|-4-------------------------------3----------------------------------------|
E|--------------------------------------------------------------------------|

Guitar 2 (clean, chorus)
e|--------------------------------------------------------------------------|
B|---------5---------------5---------------4---------------4----------------|
G|-----6-----6---6-----6-----6---6-----5-----5---5-----5-----5---5----------|
D|---6---6-----6-----6---6-----6-----5---5-----5-----5---5-----5------------|
A|-4---------------4---------------3---------------3------------------------|
E|--------------------------------------------------------------------------|

Guitar 1 (cont)
e|----------------------------------0~--------------------------------------|
B|----------------------------------1~--------------------------------------|
G|-4---------------3----------------2~--------------------------------------|
D|-4---------------3----------------2~--------------------------------------|
A|-2---------------1----------------0~--------------------------------------|
E|--------------------------------------------------------------------------|
Guitar 2 (cont)
e|----------------------------------0~--------------------------------------|
B|---------3---------------2--------1~--------------------------------------|
G|-----4-----4---4-----3-----3---3--2~--------------------------------------|
D|---4---4-----4-----3---3-----3----2~--------------------------------------|
A|-2---------------1----------------0~--------------------------------------|
E|--------------------------------------------------------------------------|

Now comes the interlude where one guitar is playing clean with a 
slight tremolo effect and maybe something else like a flange or 
chorus, I’m not enough of a gear head to be able to distinguish


e|--------------------------------------------------------------------------|
B|-------1-----------1-----------1-----------1------------------------------|
G|-----2---2-------2---2-------2---2-------2---2---------1-----------1------|
D|---2-------2---2-------2---2-------2---2-------2-----2---2-------2---2----|
A|-0-----------0-----------0-----------0-------------2-------2---2-------2--|
E|-------------------------------------------------0-----------0-----------0|

e|--------------------------------------------------------------------------|
B|------------------------------1-----------1-----------1-----------1-------|
G|-----1-----------1----------2---2-------2---2-------2---2-------2---2-----|
D|---2---2-------2---2------2-------2---2-------2---2-------2---2-------2---|
A|-2-------2---2-------2--0-----------0-----------0-----------0-------------|
E|-----------0--------------------------------------------------------------|

e|--------------------------------------------------------------------------|
B|--------------------------------------------------------------------------|
G|-------1-----------1-----------1-----------1------------------------------|
D|-----2---2-------2---2-------2---2-------2---2----------------------------|
A|---2-------2---2-------2---2-------2---2-------2--------------------------|
E|-0-----------0-----------0-----------0------------------------------------|

After repeating this for quite a while it goes (4:58 or so)
e|--------------------------------------------------------------------------|
B|-------1-------------------------1-----------1-----------2-----------2----|
G|-----2---2---------1-----------2---2-------2---2-------2---2-------2---2--|
D|---2-------2-----2---2-------2-------2---2-------2---2-------2---2-------2|
A|-0-------------2-------2---0-----------0-----------0-----------0----------|
E|-------------0-----------0------------------------------------------------|

Now it changes to a D – A progression and repeats until 5:49
e|-------2-----------2------------------------------------------------------|
B|-----3---3-------3---3---------2-----------2------------------------------|
G|---2-------2---2-------2-----2---2-------2---2----------------------------|
D|-0-----------0-------------2-------2---2-------2--------------------------|
A|-------------------------0-----------0------------------------------------|
E|--------------------------------------------------------------------------|

Then it goes
e|-------------0~-----------------------------------------------------------|
B|---------0-0~-------------------------------------------------------------|
G|-------1~-----------------------------------------------------------------|
D|-----2~-------------------------------------------------------------------|
A|---2~---------------------------------------------------------------------|
E|-0~-----------------------------------------------------------------------|


Now comes “Follow the Sun”

“and we all follow the sun… Come everyone, follow the sun”

          Gmaj           Fmaj              Emin              Dmaj
e|--3--3-3-3--3--3-3--1--1-1-1--1--1-1--0--0-0-0--0--0-0--2--2-2-2--2--2-2--|
B|--3--3-3-3--3--3-3--1--1-1-1--1--1-1--0--0-0-0--0--0-0--3--3-3-3--3--3-3--|
G|--0--0-0-0--0--0-0--2--2-2-2--2--2-2--0--0-0-0--0--0-0--2--2-2-2--2--2-2--|
D|--0--0-0-0--0--0-0--3--3-3-3--3--3-3--2--2-2-2--2--2-2--0--0-0-0--0--0-0--|
A|--2--2-2-2--2--2-2--3--3-3-3--3--3-3--2--2-2-2--2--2-2--------------------|
E|--3--3-3-3--3--3-3--1--1-1-1--1--1-1--0--0-0-0--0--0-0--------------------|


| /  slide up
| \  slide down
| h  hammer-on
| p  pull-off
| ~  vibrato
| +  harmonic
| x  Mute note
            
Hard to play? Try these video lessons and learn fast. | Correct




comments powered by Disqus
↑ Back to top | Tablatures and chords are parodies/interpretations of the original songs. You may use it for private study, scholarship, research or language learning purposes only