» » »

Husam Husam Tabs (ver.1)

Artists:  A B C D E F G H I J K L M N O P Q R S T U V W X Y Z # 

Husam Husam Tabs (ver.1)

The Anniversary
Rating:
0/5 (0 votes)

Tabs too difficult? Try these video lessons and learn fast.
                Intro: First Guitar 
e|-1---1---1---1--1--1--1--1----------------| 
B|--3---3---3---3--3--3--3--3--3--3--3--3---| 
G|---2---2---2---2--0--0--0--0--3--3--3--3--| 
D|-------------------------------0--0--0--0-| 
A|------------------------------------------| 
E|------------------------------------------| 

Intro:Second Guitar 
e|-5--8-6-5--8-6-5--3-1-0-/5--5--8-6-5--8-6-5--3-1-0--1-0--1-0--1-0--1-0-1/3-1-| 
B|-------------------------------------------------------3----3----3-----------| 
cont. 
e|-1-0--1-0--1-0--1-0--1/6-8-6-5-| 
B|----3----3----3----------------| 

e|----| 
B|----| 
G|----| 
D|-7--| 
A|-7--| 
E|-5--| 
Verse 
e|-------------------------0-0-0-0-0-0-0-0-| 
B|-------------------------3-3-3-3-3-3-3-3-| 
G|-------------------------2-2-2-2-2-2-2-2-| 
D|-3-3-3-3-3-3--2-2-2-2-2--0-0-0-0-0-0-0-0-| 
A|-3-3-3-3-3-3--2-2-2-2-2--0-0-0-0-0-0-0-0-| 
E|-1-1-1-1-1-1--0-0-0-0-0--0-0-0-0-0-0-0-0-| 

Pre-Chorus(listen to the song to see how many times the notes are played) 
e|-------| 
B|-------| 
G|-------| 
D|-5-8-7-| 
A|-5-8-7-| 
E|-3-6-5-| 

Chorus:First Guitar 
e|-------------------------| 
B|-------------------------| 
G|-------------------------| 
D|-3-3-3-3-7-7-7-7-3-3-3-3-| 
A|-3-3-3-3-7-7-7-7-3-3-3-3-| 
E|-1-1-1-1-5-5-5-5-1-1-1-1-| 

Chorus:Second Guitar 
e|-88-66-55-66-55-| 

Bridge 
A|-0-00-2-22-3-33-5-55-7-77-8-88-7-77-(5-7-7-5-7-5-3)-| repeat 
A|-3-3-5-7-2-3-2-|replace()second time 

Order Played: 
Intro 
Verse 
Pre-Chorus 
Chorus 
Verse 
Pre-Chorus 
Chorus 
Pre-Chorus 
Bridge 
Chorus
            
Tabs too difficult? Try these video lessons and learn fast.




comments powered by Disqus
↑ Back to top | Tablatures and chords are parodies/interpretations of the original songs. You may use it for private study, scholarship, research or language learning purposes only