» » »

The Anics, Spilt Bass tabs (ver.1)

Artists:  A B C D E F G H I J K L M N O P Q R S T U V W X Y Z # 

Spilt Bass tabs (ver.1)

The Anics Tabs
 Rating:
4/5 (4 votes)
Spilt lessons Tabs too difficult? Try these video lessons and learn fast
                Tuning- Drop D

Riff 1:

G------4----4--------------------------------
D---------4---------4---------2------2------
A--2------------------4-----------2-----2---
D-----------------4---------2----------------

Riff 2:

G----------------------------------------------
D----------------------------------------------
A--2222-------------------------------------
D----------4444-----2222----1-4---------

Riff 3 (Chorus):

G-------------------------------------------------------------------
D-------------------------------------------------------------------
A--33333333----5555555------------------------------------
D-----------------------------------5555555----222222------

G-------------------------------------------------------------------
D-------------------------------------------------------------------
A--33333333----5555555-------------------2--2--2---------
D-----------------------------------5555555---------------------

Thats about it. The song order is very easy so its really easy  to work out. Enjoy!
            
Submit corrections

comments powered by Disqus
↑ Back to top | The Anics Bass for Spilt. Lyrics for acoustic guitar and electric guitar. Tablatures and chords are parodies/interpretations of the original songs. You may use it for private study, scholarship, research or language learning purposes only