» » »

Dance Inside Tabs (ver.2)

Artists:  A B C D E F G H I J K L M N O P Q R S T U V W X Y Z # 

Dance Inside Tabs (ver.2)

The All American Rejects
Rating:
0/5 (0 votes)

Hard to play? Try these video lessons and learn fast.
                			     Dance Inside - All-American Rejects


Tuning: Standard (yay!)


Two guitars in this song. I'll place one after the other.

Intro:

Lead:

e|------------------------------------------------------------------------------|
B|------------------------------------------------------------------------------|
G|-9-9-8-9-9----9-9-8-9-9----9-9-8-9-9----9-9-8-6-4-1--9-9-8-9-9---9-9-11-9-8-9-|
D|-----------9------------9------------9-------------------------9--------------|
A|------------------------------------------------------------------------------|
E|------------------------------------------------------------------------------|

e|---------------------------|
B|------------9--------------|
G|9-9-8-9-9-----9------------|
D|----------8-----11---------|
A|---------------------------|
E|---------------------------|

Rhythm (Acoustic/Clean)

e|--------------------|
B|--------------------|
G|6--------9--8-------| Play this twice. You can figure out the strumming.
D|6--7--9--9--8-------|
A|4--7--9--7--6-------|
E|---5--7-------------|

Verse: First part just bass, then, after 'Eyes full striking...'

Lead:

e|-----------------------------------|
B|-----------------------------------|
G|9--8--9/13--11--13--14--13--11--9--|
D|-----------------------------------|
A------------------------------------|
E|-----------------------------------|

Rhythm repeats intro once.
Verse One continued: No guitar, just bass.

Then comes the pre-chorus thingy (I'll be fine...etc)

Lead:

e|----------------------------|
B|----------------------------|
G|9--8--9/13--11--9--8--9-----| x 2
D|----------------------------|
A|----------------------------|
E|----------------------------|

Rhythm:

e|------------------|
B|------------------|
G|66----------------| x 2
D|66-77--9~---------|
A|44-77--9~---------|
E|---55--7~---------|

First Chorus:

Lead:

e|------------------------------------|
B|------------------------------------|
G|9--8--9/13--11--13--14--13--11--9---| x 2
D|------------------------------------|
A|------------------------------------|
E|------------------------------------|

Rhythm plays intro, again Clean.

Then comes verse two:

Lead:

e|------------------|
B|------------------|
G|6-----9-9~--8-8~--| x 2 (Note: the first two notes there are played 8 times
D|6--7--x-x~--x-x~--|      each and they're palm mutes)
A|4--7--7-7~--6-6~--|
E|---5--------------|
  *  *
Rhythm:

e|--------------|
B|--------------|  x 2 (Note: first three notes played 8 times each, last two
G|6--------9--8-|       played only twice.)
D|6--7--9--9--8-|
A|4--7--9--7--6-|
E|---5--7-------|
  *  *  *  *  *

Then play the pre-chorus again (shown above).

Chorus Two: Basically the same as Chorus one, without the lead part. Both guitars play the same.


e|--------------------|
B|--------------------|
G|6--------9--8-------| Play this twice. You can figure out the strumming.
D|6--7--9--9--8-------|
A|4--7--9--7--6-------|
E|---5--7-------------|

Then comes a solo - hooray, a solo!

Lead:

e|----------------------------------------------------------------------------------------------------|
B|--------------------------------------------------------12------------------------------------------|
G|9--11--13--9--11--13--9--11--13--14--13---14--13--11\9------13\9------------------------------------|
D|x--x---x---x--x---x---x--x---x---x---x----------------------------11--13--14--11--13--14--11--9--7~-|
A|7--9---11--7--9---11--7--9---11--12--11-------------------------------------------------------------|
E|----------------------------------------------------------------------------------------------------|

e|5--4--2--4--5/7/9/11/--16^--16--14--16--12--12--11-----12--11--12--14--11--12--14--16--14--16--17--|
B|---------------------------------------------------12----------------------------------------------|
G|---------------------------------------------------------------------------------------------------|
D|---------------------------------------------------------------------------------------------------|
A|---------------------------------------------------------------------------------------------------|
E|---------------------------------------------------------------------------------------------------|

Rhythm:

Ok, for the first half just play the chorus. Then, on the 2nd half of the lead part, play this:

e|----------------|
B|----------------|
G|9--8--6--2--4---| x 2 You can figure out the strumming yourself, its easy.
D|9--8--6--2--4---|
A|7--6--4--0--2---|
E|----------------|

			     Dance Inside - All-American Rejects


Tuning: Standard (yay!)


Two guitars in this song. I'll place one after the other.

Intro:

Lead:

e|------------------------------------------------------------------------------|
B|------------------------------------------------------------------------------|
G|-9-9-8-9-9----9-9-8-9-9----9-9-8-9-9----9-9-8-6-4-1--9-9-8-9-9---9-9-11-9-8-9-|
D|-----------9------------9------------9-------------------------9--------------|
A|------------------------------------------------------------------------------|
E|------------------------------------------------------------------------------|

e|---------------------------|
B|------------9--------------|
G|9-9-8-9-9-----9------------|
D|----------8-----11---------|
A|---------------------------|
E|---------------------------|

Rhythm (Acoustic/Clean)

e|--------------------|
B|--------------------|
G|6--------9--8-------| Play this twice. You can figure out the strumming.
D|6--7--9--9--8-------|
A|4--7--9--7--6-------|
E|---5--7-------------|

Verse: First part just bass, then, after 'Eyes full striking...'

Lead:

e|-----------------------------------|
B|-----------------------------------|
G|9--8--9/13--11--13--14--13--11--9--|
D|-----------------------------------|
A------------------------------------|
E|-----------------------------------|

Rhythm repeats intro once.
Verse One continued: No guitar, just bass.

Then comes the pre-chorus thingy (I'll be fine...etc)

Lead:

e|----------------------------|
B|----------------------------|
G|9--8--9/13--11--9--8--9-----| x 2
D|----------------------------|
A|----------------------------|
E|----------------------------|

Rhythm:

e|------------------|
B|------------------|
G|66----------------| x 2
D|66-77--9~---------|
A|44-77--9~---------|
E|---55--7~---------|

First Chorus:

Lead:

e|------------------------------------|
B|------------------------------------|
G|9--8--9/13--11--13--14--13--11--9---| x 2
D|------------------------------------|
A|------------------------------------|
E|------------------------------------|

Rhythm plays intro, again Clean.

Then comes verse two:

Lead:

e|------------------|
B|------------------|
G|6-----9-9~--8-8~--| x 2 (Note: the first two notes there are played 8 times
D|6--7--x-x~--x-x~--|      each and they're palm mutes)
A|4--7--7-7~--6-6~--|
E|---5--------------|
  *  *
Rhythm:

e|--------------|
B|--------------|  x 2 (Note: first three notes played 8 times each, last two
G|6--------9--8-|       played only twice.)
D|6--7--9--9--8-|
A|4--7--9--7--6-|
E|---5--7-------|
  *  *  *  *  *

Then play the pre-chorus again (shown above).

Chorus Two: Basically the same as Chorus one, without the lead part. Both guitars play the same.


e|--------------------|
B|--------------------|
G|6--------9--8-------| Play this twice. You can figure out the strumming.
D|6--7--9--9--8-------|
A|4--7--9--7--6-------|
E|---5--7-------------|

Then comes a solo - hooray, a solo!

Lead:

e|----------------------------------------------------------------------------------------------------|
B|--------------------------------------------------------12------------------------------------------|
G|9--11--13--9--11--13--9--11--13--14--13---14--13--11\9------13\9------------------------------------|
D|x--x---x---x--x---x---x--x---x---x---x----------------------------11--13--14--11--13--14--11--9--7~-|
A|7--9---11--7--9---11--7--9---11--12--11-------------------------------------------------------------|
E|----------------------------------------------------------------------------------------------------|

e|5--4--2--4--5/7/9/11/--16^--16--14--16--12--12--11-----12--11--12--14--11--12--14--16--14--16--17--|
B|---------------------------------------------------12----------------------------------------------|
G|---------------------------------------------------------------------------------------------------|
D|---------------------------------------------------------------------------------------------------|
A|---------------------------------------------------------------------------------------------------|
E|---------------------------------------------------------------------------------------------------|

Rhythm:

Ok, for the first half just play the chorus. Then, on the 2nd half of the lead part, play this:

e|----------------|
B|----------------|
G|9--8--6--2--4---| x 2 You can figure out the strumming yourself, its easy.
D|9--8--6--2--4---|
A|7--6--4--0--2---|
E|----------------|


Then there's the weird pre-chorus. Both guitars play the same:

e|-------------------------------------------------------------------------------------|
B|-------------------------------------------------------------------------------------|
G|6------------------------------------------------------------------------------------|
D|6--7--9/--4--6--7--9-----------------------------------------------------------------|
A|4--7--9/--4--6--7--9-----------------------------------------------------------------|
E|---5--7/--2--4--5--7-----------------------------------------------------------------|
  *  *  *            *

Then repeat the chorus twice more. The ending is as follows:


Lead:

e|12--12--11--12------12--12-11--12------12--12--11--12------12--12--11--9--7---4--|
B|----------------12-----------------12------------------12------------------------|
G|---------------------------------------------------------------------------------|
D|---------------------------------------------------------------------------------|
A|---------------------------------------------------------------------------------|
E|---------------------------------------------------------------------------------|

e|12--12--11--12------12--12--11--12------12--12--14--12--11--12------|
B|----------------12------------------12------------------------- G|--|
D|--------------------------------------------------------------------|
A|--------------------------------------------------------------------|
E|--------------------------------------------------------------------|


Rhythm:

e|------------------------------------------------|
B|------------------------------------------------|
G|6----------------------------------------9--8---|
D|6-(let-ring)--7-(let-ring)--9-(let-ring)-9--8---|
A|4-------------7-------------9------------7--6---|
E|--------------5-------------7-------------------|

e|--------------------------------------------|
B|--------------------------------------------|
G|6----------------------------------------9~-|
D|6-(let-ring)--7-(let-ring)--9-(let-ring)-9~-|
A|4-------------7-------------9------------7~-|
E|--------------5-------------7---------------|


And that's the end of the awesome song. If you ever get a chance, go and see the All 
Rejects, cos they really are amazing live. Righto, cya!


| /  slide up
| \  slide down
| h  hammer-on
| p  pull-off
| ~  vibrato
| +  harmonic
| x  Mute note
            
Hard to play? Try these video lessons and learn fast. | Correct




comments powered by Disqus
↑ Back to top | Tablatures and chords are parodies/interpretations of the original songs. You may use it for private study, scholarship, research or language learning purposes only