>
 >
Welcome To Your Wedding Day

Welcome To Your Wedding Day Guitar Tabs

The Airborne Toxic Event - Welcome To Your Wedding Day chords, tabs, tablatures, lyrics

Guitar lessons | Add/correct | Request | Top 50 tabs Artists:  A B C D E F G H I J K L M N O P Q R S T U V W X Y Z 0-9

Welcome To Your Wedding Day Guitar Tabs – The Airborne Toxic Event

CD, Sheet music, Poster

Do you like Welcome To Your Wedding Day? Share with your friends now
ChordsTabsUkulele
-----------------------------------------------------------------------------
-----------------------------------------------------------------------------

Acoustic Version
For rhythm and strum patten reference song 

Tuning: Standard; Capo 3rd Fret

Intro

e|-----------------------/8-8-----------------------------------------------|
B|-/10-10-10-10-10-8-8-8----------------------------------------------------|
G|--------------------------------------------------------------------------|
D|--------------------------------------------------------------------------|
A|--------------------------------------------------------------------------|
E|--------------------------------------------------------------------------|

Verse Repeat x5
       Am         E       C
e|-0-0-0-0-0-0--0-0-0--0-0-0-0----------------------------------------------|
B|-1-1-1-1-1-1--0-0-0--1-1-1-1----------------------------------------------|
G|-2-2-2-2-2-2--1-1-1--0-0-0-0----------------------------------------------|
D|-2-2-2-2-2-2--2-2-2--2-2-2-2----------------------------------------------|
A|-0-0-0-0-0-0--2-2-2--3-3-3-3----------------------------------------------|
E|-x-x-x-x-x-x--0-0-0--x-x-x-x----------------------------------------------|

Chorus Repeat x3 (3rd time end on Am)
        C         Gadd#9         Am          Gadd#9
e|-0-0-0-0-0-0--0-0-0-0-0-0--0-0-0-0-0-0--0-0-0-0-0-0-----------------------|
B|-1-1-1-1-1-1--1-1-1-1-1-1--1-1-1-1-1-1--1-1-1-1-1-1-----------------------|
G|-0-0-0-0-0-0--0-0-0-0-0-0--2-2-2-2-2-2--0-0-0-0-0-0-----------------------|
D|-2-2-2-2-2-2--0-0-0-0-0-0--2-2-2-2-2-2--0-0-0-0-0-0-----------------------|
A|-3-3-3-3-3-3--2-2-2-2-2-2--0-0-0-0-0-0--2-2-2-2-2-2-----------------------|
E|-x-x-x-x-x-x--3-3-3-3-3-3--x-x-x-x-x-x--3-3-3-3-3-3-----------------------|

2nd Verse Repeat x6 (6th time just play Am)
add strums to each chord after 2nd repeat
    Am     E      C
e|-0-0-0--0-0--0-0-0-0------------------------------------------------------|
B|-1-1-1--0-0--1-1-1-1------------------------------------------------------|
G|-2-2-2--1-1--0-0-0-0------------------------------------------------------|
D|-2-2-2--2-2--2-2-2-2------------------------------------------------------|
A|-0-0-0--2-2--3-3-3-3------------------------------------------------------|
E|-x-x-x--0-0--x-x-x-x------------------------------------------------------|

2nd Chorus Repeat x4 (4rd time end on 1st Gadd#9)
        C         Gadd#9         Am          Gadd#9
e|-0-0-0-0-0-0--0-0-0-0-0-0--0-0-0-0-0-0--0-0-0-0-0-0-----------------------|
B|-1-1-1-1-1-1--1-1-1-1-1-1--1-1-1-1-1-1--1-1-1-1-1-1-----------------------|
G|-0-0-0-0-0-0--0-0-0-0-0-0--2-2-2-2-2-2--0-0-0-0-0-0-----------------------|
D|-2-2-2-2-2-2--0-0-0-0-0-0--2-2-2-2-2-2--0-0-0-0-0-0-----------------------|
A|-3-3-3-3-3-3--2-2-2-2-2-2--0-0-0-0-0-0--2-2-2-2-2-2-----------------------|
E|-x-x-x-x-x-x--3-3-3-3-3-3--x-x-x-x-x-x--3-3-3-3-3-3-----------------------|

Bridge Repeat x2 (Fast Rhythm)

e|--------------------------------------------------------------------------|
B|--------------------------------------------------------------------------|
G|-14-14-14-14-14-12-12-12-12-12-9-9-9-9-9-7-7-7-7-7-5-5-5-5-5-7-7-7-7-7----|
D|--------------------------------------------------------------------------|
A|-12-12-12-12-12-10-10-10-10-10-7-7-7-7-7-5-5-5-5-5-3-3-3-3-3-5-5-5-5-5----|
E|--------------------------------------------------------------------------|
       Am
e|-0-0-0-0-0-0--------------------------------------------------------------|
B|-1-1-1-1-1-1--------------------------------------------------------------|
G|-2-2-2-2-2-2--------------------------------------------------------------|
D|-2-2-2-2-2-2--------------------------------------------------------------|
A|-0-0-0-0-0-0--------------------------------------------------------------|
E|-x-x-x-x-x-x--------------------------------------------------------------|

3rd Verse Repeat x11 (Strum soft then hard)
       Am         E       C
e|-0-0-0-0-0-0--0-0-0--0-0-0-0----------------------------------------------|
B|-1-1-1-1-1-1--0-0-0--1-1-1-1----------------------------------------------|
G|-2-2-2-2-2-2--1-1-1--0-0-0-0----------------------------------------------|
D|-2-2-2-2-2-2--2-2-2--2-2-2-2----------------------------------------------|
A|-0-0-0-0-0-0--2-2-2--3-3-3-3----------------------------------------------|
E|-x-x-x-x-x-x--0-0-0--x-x-x-x----------------------------------------------|
  
3rd Chorus Repeat x4 (End on Gadd#9)
        C          Gadd#9        Am         Gadd#9
e|-0-0-0-0-0-0--0-0-0-0-0-0--0-0-0-0-0-0--0-0-0-0-0-0-----------------------|
B|-1-1-1-1-1-1--1-1-1-1-1-1--1-1-1-1-1-1--1-1-1-1-1-1-----------------------|
G|-0-0-0-0-0-0--0-0-0-0-0-0--2-2-2-2-2-2--0-0-0-0-0-0-----------------------|
D|-2-2-2-2-2-2--0-0-0-0-0-0--2-2-2-2-2-2--0-0-0-0-0-0-----------------------|
A|-3-3-3-3-3-3--2-2-2-2-2-2--0-0-0-0-0-0--2-2-2-2-2-2-----------------------|
E|-x-x-x-x-x-x--3-3-3-3-3-3--x-x-x-x-x-x--3-3-3-3-3-3-----------------------|

Outro Repeat x2 (Fast Rhythm)

e|--------------------------------------------------------------------------|
B|--------------------------------------------------------------------------|
G|-14-14-14-14-14-12-12-12-12-12-9-9-9-9-9-7-7-7-7-7-5-5-5-5-5-7-7-7-7-7----|
D|--------------------------------------------------------------------------|
A|-12-12-12-12-12-10-10-10-10-10-7-7-7-7-7-5-5-5-5-5-3-3-3-3-3-5-5-5-5-5----|
E|--------------------------------------------------------------------------|
       Am
e|-0-0-0-0-0-0--------------------------------------------------------------|
B|-1-1-1-1-1-1--------------------------------------------------------------|
G|-2-2-2-2-2-2--------------------------------------------------------------|
D|-2-2-2-2-2-2--------------------------------------------------------------|
A|-0-0-0-0-0-0--------------------------------------------------------------|
E|-x-x-x-x-x-x--------------------------------------------------------------|



************************************

| /   slide up
| \   slide down
| h   hammer-on
| p   pull-off
| ~   vibrato
| +   harmonic
| x   Mute note
| b   Bend
| pb  Pre-bend
| br  Bend release
| pbr Pre-bend release
| brb Bend release bend

************************************





Comments


Popular The Airborne Toxic Event tabs & chords
Sometime Around Midnight Bass Tabs
All For A Woman Chords
Dublin Chords
Papillon 2 Chords
Changing Tabs
Numb Tabs
Papillon 2 Tabs
Bride Groom Ukulele
Duet Ukulele
The Kids Are Ready To Die 2 Ukulele


Song lyrics



↑ Back to top | Tablatures and chords are parodies/interpretations of the original songs. You may use it for private study, scholarship, research or language learning purposes only
© 2014 AZChords.com Contact us | Privacy policy | DMCA | Add/correct tabs | Request tabs | Top 50 tabs