» » »

The Acacia Strain, The Behemoth Tabs (ver.1)

Artists:  A B C D E F G H I J K L M N O P Q R S T U V W X Y Z # 

The Behemoth Tabs (ver.1)

The Acacia Strain Tabs
 Rating:
4/5 (7 votes)
The Behemoth lessons Tabs too difficult? Try these video lessons and learn fast
                pretty sure its played in DROP A but
this version is tuned for DROP C

Guitar 1
|-------------------------------------------------------------|
|-------------------------------------------------------------|
|-------------------------------------------------------------|
|--12-12-12----11-11-11----12-12-12---------------------------|
|--------------------------------------14-14-14-14-14-14-14---|
|-------------------------------------------------------------|

|-------------------------------------------------------------|
|-------------------------------------------------------------|
|-------------------------------------------------------------|
|--12-12-12----11-11-11----12-12-12---------------------------|
|--------------------------------------12-12-12-12-12-12-12---|
|-------------------------------------------------------------|


Guitar 2
|----------------------------------------------------------|
|----------------------------------------------------------|
|--11-11-11----9-9-9----11-11-11---------------------------|
|-----------------------------------12-12-12-12-12-12-12---|
|----------------------------------------------------------|
|----------------------------------------------------------|

|----------------------------------------------------------|
|----------------------------------------------------------|
|--11-11-11----9-9-9----11-11-11---------------------------|
|-----------------------------------11-11-11-11-11-11-11---|
|----------------------------------------------------------|
|----------------------------------------------------------|


Guitar 1
|------------------------------------------------------------------------------|
|------------------------------------------------------------------------------|
|------------------------------------------------------------------------------|
|------------------------------------------------------------------------------|
|------------------------------------------------------------------------------|
|--9-9-9-9-9-9-9-9-9-9-9-9-9-9-9-9---12-12-12-12-12-12---7-7-7-7-7-7-7-7-7-7---|

|----------------------------------------|
|----------------------------------------|
|----------------------------------------|
|--9---7---9---5------9---7---9---12*----|
|--9---7---9---5------9---7---9---12*----|
|--9---7---9---5------9---7---9---12*----|

Guitar 2
|----------------------------------------|
|----------------------------------------|
|---------------------------------7------|
|--9---7---9---7------9---7---9---7------|
|--9---7---9---5------9---7---9---5------|
|--9---7---9---5------9---7---9---0------|


Guitar 1
|-------------------------------------------------|
|-------------------------------------------------|
|-------------------------------------------------|
|--9-9-9-9---9--9-9-----9-9-9-9---9--9--12*---7---|
|--9-9-9-9---9--9-9-----9-9-9-9---9--9--12*---5---|
|--9-9-9-9---9--9-9-----9-9-9-9---9--9--12*---5---|

Guitar 2
|-----------------------------------------------|
|-----------------------------------------------|
|-------------------------------------------7---|
|---------------------------------------7---7---|
|--2-2-2-2---2--2-2-----2-2-2-2---2--2--5---5---|
|--4-4-4-4---4--4-4-----4-4-4-4---4--4------5---|


Solo

|------14-----14------14-----------------|
|----------------------------15----------|
|----------------------------------------|
|--15b----15b----15b----15b------14------|
|----------------------------------------|
|----------------------------------------|

|--------------------------------------------------------|
|----15-----12-----10------------------------------------|
|--------------------------------------------------------|
|--16-----14-----12----11b------16-16-16-16-16p14--------|
|--------------------------------------------------17----|
|--------------------------------------------------------|

|----------------14-------------------------14------------------------------|
|---------15h17------17-15----------------------17--15--14------14----------|
|--14h16---------------------16-14-16-16--------------------16--------------|
|-------------------------------------------------------------------16------|
|----------------------------------------------------------------------17---|
|---------------------------------------------------------------------------|


|-----------------------------------------------------------------------|
|--15h17--14h15--12h14--------------------------------------------------|
|-----------------------14-16--13-14--11-13-----------------------------|
|--------------------------------------------14---16------------12------|
|---------------------------------------------------17-14-12-14----14---|
|-----------------------------------------------------------------------|


|-----------------------------------------------|
|-----------------------------------------------|
|-----------------------------------------------|
|--15b-15b--14--------15b-15b--14---------------|
|---------------17-----------------17-16b-16b---|
|-----------------------------------------------|
            
Submit corrections

comments powered by Disqus
↑ Back to top | The Acacia Strain Tabs for The Behemoth. Lyrics for acoustic guitar and electric guitar. Tablatures and chords are parodies/interpretations of the original songs. You may use it for private study, scholarship, research or language learning purposes only