>
 >
See You Next Tuesday

See You Next Tuesday Guitar Tabs

The Acacia Strain - See You Next Tuesday chords, tabs, tablatures, lyrics

Guitar lessons | Add/correct | Request | Top 50 tabs Artists:  A B C D E F G H I J K L M N O P Q R S T U V W X Y Z 0-9

See You Next Tuesday Guitar Tabs – The Acacia Strain

CD, Sheet music, Poster

Do you like See You Next Tuesday? Share with your friends now
Tabs
                              SEE YOU NEXT TUESDAY
                        As recorded by The Acacia Strain
                       (From the 2006 Album THE DEAD WALK)

Words by Vincent Bennett

Music by The Acacia Strain

Gtr I (Ab Eb Ab Db F Bb) - 'Left'
Gtr II (Ab Eb Ab Db F Bb) - 'Right'
Gtr III (Ab Eb Ab Db F Bb) - 'Center'
Gtr IV (Ab Eb Ab Db F Bb) - 'Center'
Gtr V (Ab Eb Ab Db F Bb) - 'Clean Outro'
Gtr VI (Ab Eb Ab Db F Bb) - 'Delay sim.'

 "I said run..."
  Q=153
  D5
 4/4
  Gtr I
                                                            TP
  W                 +W                  +W                  W
|-----------------|-------------------|-------------------|----------------|
|-----------------|-------------------|-------------------|----------------|
|-----------------|-------------------|-------------------|----------------|
|-0---------------|-(0)---------------|-(0)---------------|-x\-------------|
|-0---------------|-(0)---------------|-(0)---------------|-x\--------------
|-0---------------|-(0)---------------|-(0)---------------|-x\-------------|
|
| Gtr II
| E E E E E E E E    E  E E E E E E E    E  E E E E E E E   E  E E E E E E E
|-----------------|-------------------|-------------------|----------------|
|-----------------|-------------------|-------------------|----------------|
|-----------------|-------------------|-------------------|----------------|
|-----------------|-------------------|-------------------|----------------|
|-----------------|-------------------|-------------------|----------------|
|-0-0-0-1-0-0-0-1-|--0--0-0-1-0-1-3-4-|--0--0-0-1-0-0-0-1-|-0--0-0-1-0-1-3-4-|


  D5
  Gtr I
  E E Q   E E Q     E E Q   E E Q
|-----------------|-----------------|
|-----------------|-----------------|
|-----------------|-----------------|
|-----------------|-----------------|
|-0-------0-------|-0-------0-------|
|-0-------0-------|-0-------0-------|
|
| Gtr II
| E E E E E E E E   E E E E E E E E
|-----------------|-----------------|
|-----------------|-----------------|
|-----------------|-----------------|
|-----------------|-----------------|
|-----------------|-----------------|
|-0-0-0-1-0-0-0-1-|-0-0-0-1-0-1-3-4-|


                    F#F5EbD5N.C.
  E E E E E E E E   E E E E  S S S S S S S S
|-----------------|----------------------------||
|-----------------|----------------------------||
|-----------------|----------------------------||
|-----------------|----------------------------||
|-0---0---0---0---|-4-3-1-0--------------------||
|-0---0---0---0---|-4-3-1-0-/7-7-7-7-7-7-7-7---||
|
| E E E E E E E E   E E E E  S S S S S S S S
|-----------------|----------------------------||
|-----------------|----------------------------||
|-----------------|----------------------------||
|-----------------|----------------------------||
|-----------------|-4-3-1-0--------------------||
|-0-0-0-1-0-0-0-1-|-4-3-1-0-/7-7-7-7-7-7-7-7---||


   "And you won't..."
                                                         1.
    D5    N.D5    N.C.D5    N.C.        D5    N.D5    N.C.D5    N.C.
    E E E E E E E E   E E E E E E E E   E E E E E E E E   E E E E E E E E
||------------------|-----------------|-----------------|-----------------||
||o-----------------|-----------------|-----------------|----------------o||
||------------------|-----------------|-----------------|-----------------||
||------------------|-----------------|-----------------|-----------------||
||o-0-0-0---0-0-0---|-0-0-0-----------|-0-0-0---0-0-0---|-0-0-0----------o||
||--0-0-0-1-0-0-0-1-|-0-0-0-1-0-1-3-4-|-0-0-0-1-0-0-0-1-|-0-0-0-1-0-1-3-4-||
|
|   E E E E E E E E   E E E E E E E E   E E E E E E E E   E E E E E E E E
||------------------|-----------------|-----------------|-----------------||
||o-----------------|-----------------|-----------------|----------------o||
||------------------|-----------------|-----------------|-----------------||
||------------------|-----------------|-----------------|-----------------||
||o-0-0-0---0-0-0---|-0-0-0-----------|-0-0-0---0-0-0---|-0-0-0----------o||
||--0-0-0-1-0-0-0-1-|-0-0-0-1-0-1-3-4-|-0-0-0-1-0-0-0-1-|-0-0-0-1-0-1-3-4-||


  2.
  F#F5EbF5D5EbF5F#5 D5    EbD5    Eb5 D5    EbD5EbF5F#5
  E E E E E E E E   E E E E E E E E   E E E E E E E E
|-----------------|-----------------|-----------------|
|-----------------|-----------------|-----------------|
|-----------------|-----------------|-----------------|
|-----------------|-----------------|-----------------|
|-4-3-1-3-0-1-3-4-|-0-0-0---0-0-0---|-0-0-0---0-1-3-4-|
|-4-3-1-3-0-1-3-4-|-0-0-0---0-0-0---|-0-0-0---0-1-3-4-|
|
| E E E E E E E E   E E E E E E E E   E E E E E E E E
|-----------------|-----------------|-----------------|
|-----------------|-----------------|-----------------|
|-----------------|-----------------|-----------------|
|-----------------|-----------------|-----------------|
|-4-3-1-3-0-1-3-4-|-0-0-0-1-0-0-0-1-|-0-0-0-1-0-1-3-4-|
|-4-3-1-3-0-1-3-4-|-0-0-0-1-0-0-0-1-|-0-0-0-1-0-1-3-4-|


  D5    EbD5    Eb5 D5    EbD5EbF5F#5 D5    EbD5    Eb5 D5    EbD5EbF5F#5
  E E E E E E E E   E E E E E E E E   E E E E E E E E   E E E E E E E E
|-----------------|-----------------|-----------------|------------------|
|-----------------|-----------------|-----------------|------------------|
|-----------------|-----------------|-----------------|------------------|
|-----------------|-----------------|-----------------|------------------|
|-0-0-0-1-0-0-0-1-|-0-0-0-1-0-1-3-4-|-0-0-0---0-0-0---|-0-0-0---0-1-3-4--|
|-0-0-0-1-0-0-0-1-|-0-0-0-1-0-1-3-4-|-0-0-0---0-0-0---|-0-0-0---0-1-3-4--|
|
| E E E E E E E E   E E E E E E E E   E E E E E E E E   E E E E E E E E
|-----------------|-----------------|-----------------|------------------|
|-----------------|-----------------|-----------------|------------------|
|-----------------|-----------------|-----------------|------------------|
|-----------------|-----------------|-----------------|------------------|
|-0-0-0---0-0-0---|-0-0-0---0-1-3-4-|-0-0-0-1-0-0-0-1-|-0-0-0-1-0-1-3-4--|
|-0-0-0---0-0-0---|-0-0-0---0-1-3-4-|-0-0-0-1-0-0-0-1-|-0-0-0-1-0-1-3-4--|


  D5    EbD5    Eb5 F#F5EbF5D5EbF5F#5
  E E E E E E E E   E E E E E E E E
|-----------------|-----------------||
|-----------------|-----------------||
|-----------------|-----------------||
|-----------------|-----------------||
|-0-0-0-1-0-0-0-1-|-4-3-1-3-0-1-3-4-||
|-0-0-0-1-0-0-0-1-|-4-3-1-3-0-1-3-4-||
|
| E E E E E E E E   E E E E E E E E
|-----------------|-----------------||
|-----------------|-----------------||
|-----------------|-----------------||
|-----------------|-----------------||
|-0-0-0-1-0-0-0-1-|-4-3-1-3-0-1-3-4-||
|-0-0-0-1-0-0-0-1-|-4-3-1-3-0-1-3-4-||


 "These are the..."
  D5                      Eb5        Ab5
  Gtr III
  W          +W           W           W
|----------|------------|----------|-------|
|----------|------------|----------|-------|
|----------|------------|----------|-------|
|-0--------|-(0)--------|-1--------|-/6----|
|-0--------|-(0)--------|-1--------|-/6----|
|-0--------|-(0)--------|-1--------|-/6----|
|
| Gtr IV
| W          +W           W           W
|----------|------------|----------|-------|
|----------|------------|----------|-------|
|----------|------------|----------|-------|
|-0--------|-(0)--------|-1--------|-/6----|
|-0--------|-(0)--------|-1--------|-/6----|
|-0--------|-(0)--------|-1--------|-/6----|


  D5                                    Eb5                Ab5
   W                 +W                  W                  W
|------------------|------------------|------------------|----------------||
|------------------|------------------|------------------|----------------||
|------------------|------------------|------------------|----------------||
|--0---------------|-(0)--------------|--1---------------|-/6-------------||
|--0---------------|-(0)--------------|--1---------------|-/6-------------||
|--0---------------|-(0)--------------|--1---------------|-/6-------------||
|
|  <         >        <         >        <         >        <         >
|  H        +H        H        +H        H        +H        H        +H
|------------------|------------------|------------------|----------------||
|-15b16r===(15)----|-15b16r===(15)----|-15b16r===(15)----|-15b16r===(15)--||
|------------------|------------------|------------------|----------------||
|------------------|------------------|------------------|----------------||
|------------------|------------------|------------------|----------------||
|------------------|------------------|------------------|----------------||


 "Next time I..."
  N.C.
  E E E E E E E E   E E E E E E E E   E E E E E E E E   E E E E E E E E
|-----------------|-----------------|-----------------|------------------|
|-----------------|-----------------|-----------------|------------------|
|-----------------|-----------------|-----------------|------------------|
|-----------------|-----------------|-----------------|------------------|
|-----------------|-----------------|-----------------|------------------|
|-0-0-0-1-0-0-0-1-|-0-0-0-1-0-1-3-4-|-0-0-0-1-0-0-0-1-|-0-0-0-1-0-1-3-4--|
|
| E E E E E E E E   E E E E E E E E   E E E E E E E E   E E E E E E E E
|-----------------|-----------------|-----------------|------------------|
|-----------------|-----------------|-----------------|------------------|
|-----------------|-----------------|-----------------|------------------|
|-----------------|-----------------|-----------------|------------------|
|-----------------|-----------------|-----------------|------------------|
|-0-0-0-1-0-0-0-1-|-0-0-0-1-0-1-3-4-|-0-0-0-1-0-0-0-1-|-0-0-0-1-0-1-3-4--|


  D5    EbD5    Eb5 D5    EbD5EbF5F#5 D5    EbD5    Eb5 F#F5EbF5D5EbF5F#5
  E E E E E E E E   E E E E E E E E   E E E E E E E E   E E E E E E E E
|-----------------|-----------------|-----------------|------------------||
|-----------------|-----------------|-----------------|------------------||
|-----------------|-----------------|-----------------|------------------||
|-----------------|-----------------|-----------------|------------------||
|-0-0-0-1-0-0-0-1-|-0-0-0-1-0-1-3-4-|-0-0-0-1-0-0-0-1-|-4-3-1-3-0-1-3-4--||
|-0-0-0-1-0-0-0-1-|-0-0-0-1-0-1-3-4-|-0-0-0-1-0-0-0-1-|-4-3-1-3-0-1-3-4--||
|
| E E E E E E E E   E E E E E E E E   E E E E E E E E   E E E E E E E E
|-----------------|-----------------|-----------------|------------------||
|-----------------|-----------------|-----------------|------------------||
|-----------------|-----------------|-----------------|------------------||
|-----------------|-----------------|-----------------|------------------||
|-0-0-0-1-0-0-0-1-|-0-0-0-1-0-1-3-4-|-0-0-0-1-0-0-0-1-|-4-3-1-3-0-1-3-4--||
|-0-0-0-1-0-0-0-1-|-0-0-0-1-0-1-3-4-|-0-0-0-1-0-0-0-1-|-4-3-1-3-0-1-3-4--||


 "These are the..."
  D5                      Eb5        Ab5
  W          +W           W           W
|----------|------------|----------|-------|
|----------|------------|----------|-------|
|----------|------------|----------|-------|
|-0--------|-(0)--------|-1--------|-/6----|
|-0--------|-(0)--------|-1--------|-/6----|
|-0--------|-(0)--------|-1--------|-/6----|
|
| W          +W           W           W
|----------|------------|----------|-------|
|----------|------------|----------|-------|
|----------|------------|----------|-------|
|-0--------|-(0)--------|-1--------|-/6----|
|-0--------|-(0)--------|-1--------|-/6----|
|-0--------|-(0)--------|-1--------|-/6----|


  D5                                    Eb5                Ab5
   W                 +W                  W                  W
|------------------|------------------|------------------|----------------||
|------------------|------------------|------------------|----------------||
|------------------|------------------|------------------|----------------||
|--0---------------|-(0)--------------|--1---------------|-/6-------------||
|--0---------------|-(0)--------------|--1---------------|-/6-------------||
|--0---------------|-(0)--------------|--1---------------|-/6-------------||
|
|  <         >        <         >        <         >        <         >
|  H        +H        H        +H        H        +H        H        +H
|------------------|------------------|------------------|----------------||
|-15b16r===(15)----|-15b16r===(15)----|-15b16r===(15)----|-15b16r===(15)--||
|------------------|------------------|------------------|----------------||
|------------------|------------------|------------------|----------------||
|------------------|------------------|------------------|----------------||
|------------------|------------------|------------------|----------------||


   "I've washed my..."
    D5                                                         N.C.
    Q  Q  +E  E E E   +E  E E Q  E E E   Q  Q  +E  E E E   +E  S S E E E E Q
||------------------|------------------|-----------------|----------------||
||o-----------------|------------------|-----------------|---------------o||
||------------------|------------------|-----------------|----------------||
||------------------|------------------|-----------------|----------------||
||o-0--0--(0)-0-0-0-|-(0)-0-0-0--0-0-0-|-0--0--(0)-0-0-0-|-(0)-----------o||
||--0--0--(0)-0-0-0-|-(0)-0-0-0--0-0-0-|-0--0--(0)-0-0-0-|-(0)-3s5-8-7-5-8-4--||
|
|   Q  Q  +E  E E E   +E  E E Q  E E E   Q  Q  +E  E E E   +E  S S E E E E Q
||------------------|------------------|-----------------|----------------||
||o-----------------|------------------|-----------------|---------------o||
||------------------|------------------|-----------------|----------------||
||------------------|------------------|-----------------|----------------||
||o-0--0--(0)-0-0-0-|-(0)-0-0-0--0-0-0-|-0--0--(0)-0-0-0-|-(0)-----------o||
||--0--0--(0)-0-0-0-|-(0)-0-0-0--0-0-0-|-0--0--(0)-0-0-0-|-(0)-3s5-8-7-5-8-4--||


  D5                                                  N.C.
  Gtr I
  E E E Q  E E E   E E E E E E E E   E E E Q  E E E   E S S  E  E E  E Q
|----------------|-----------------|----------------|---------------------|
|----------------|-----------------|----------------|---------------------|
|----------------|-----------------|----------------|---------------------|
|----------------|-----------------|----------------|---------------------|
|-0---0----0-0-0-|---0-0-0---0-0-0-|-0---0----0-0-0-|---------------------|
|-0---0----0-0-0-|---0-0-0---0-0-0-|-0---0----0-0-0-|---3s5--8--7-5--8-4--|
|
| Gtr II
| E E E Q  E E E   E E E E E E E E   E E E Q  E E E   E S S  E  E E  E Q
|----------------|-----------------|----------------|---------------------|
|----------------|-----------------|----------------|---------------------|
|----------------|-----------------|----------------|---------------------|
|----------------|-----------------|----------------|---------------------|
|-0---0----0-0-0-|---0-0-0---0-0-0-|-0---0----0-0-0-|---------------------|
|-0---0----0-0-0-|---0-0-0---0-0-0-|-0---0----0-0-0-|---6s8-11-10-8-11-7--|


  D5                                                  N.C.
  E E E Q  E E E   E E E E E E E E   E E E Q  E E E   E S S E E E E Q
|----------------|-----------------|----------------|------------------||
|----------------|-----------------|----------------|------------------||
|----------------|-----------------|----------------|------------------||
|----------------|-----------------|----------------|------------------||
|-0---0----0-0-0-|---0-0-0---0-0-0-|-0---0----0-0-0-|------------------||
|-0---0----0-0-0-|---0-0-0---0-0-0-|-0---0----0-0-0-|---3s5-8-7-5-8-4--||
|
| E E E Q  E E E   E E E E E E E E   E E E Q  E E E   E S S E E E E Q
|----------------|-----------------|----------------|------------------||
|----------------|-----------------|----------------|------------------||
|----------------|-----------------|----------------|------------------||
|----------------|-----------------|----------------|------------------||
|-0---0----0-0-0-|---0-0-0---0-0-0-|-0---0----0-0-0-|------------------||
|-0---0----0-0-0-|---0-0-0---0-0-0-|-0---0----0-0-0-|---3s5-8-7-5-8-4--||


   "By the end..."
    D5 N.C.  BbN.A5  N.G5N.EbF#F5EbD5  D5   N.C.  EbN.F#5 N.F5N.F#N.F5N.Eb5
    Gtr III
    Q  E E E E E E   E E E E E E E E   +Q   E E E E E E   E E E E E E E E  4x
||-----------------|-----------------|------------------|-----------------||
||o----------------|-----------------|------------------|----------------o||
||-----------------|-----------------|------------------|-----------------||
||--0--------------|---------------0-|-(0)--------------|-----------------||
||o-0--------8---7-|---5---1-4-3-1-0-|-(0)--------1---4-|---3---4---3---1o||
||--0--0-0-0-8-0-7-|-0-5-0-1-4-3-1-0-|-(0)--0-0-0-1-0-4-|-0-3-0-4-0-3-0-1-||
|
|   Gtr IV
|   Q  E E E E E E   E E E E E E E E   +Q   E E E E E E   E E E E E E E E  4x
||-----------------|-----------------|------------------|-----------------||
||o----------------|-----------------|------------------|----------------o||
||-----------------|-----------------|------------------|-----------------||
||--0--------------|---------------0-|-(0)--------------|-----------------||
||o-0--------8---7-|---5---1-4-3-1-0-|-(0)--------1---4-|---3---4---3---1o||
||--0--0-0-0-8-0-7-|-0-5-0-1-4-3-1-0-|-(0)--0-0-0-1-0-4-|-0-3-0-4-0-3-0-1-||


 "Not even your..."
  D5                      Eb5        Ab5
  W          +W           W           W
|----------|------------|----------|-------|
|----------|------------|----------|-------|
|----------|------------|----------|-------|
|-0--------|-(0)--------|-1--------|-/6----|
|-0--------|-(0)--------|-1--------|-/6----|
|-0--------|-(0)--------|-1--------|-/6----|
|
| W          +W           W           W
|----------|------------|----------|-------|
|----------|------------|----------|-------|
|----------|------------|----------|-------|
|-0--------|-(0)--------|-1--------|-/6----|
|-0--------|-(0)--------|-1--------|-/6----|
|-0--------|-(0)--------|-1--------|-/6----|


  D5                      Eb5        Ab5
  W          +W           W           W
|----------|------------|----------|-------||
|----------|------------|----------|-------||
|----------|------------|----------|-------||
|-0--------|-(0)--------|-1--------|-/6----||
|-0--------|-(0)--------|-1--------|-/6----||
|-0--------|-(0)--------|-1--------|-/6----||
|
| W          +W           W           W
|----------|------------|----------|-------||
|----------|------------|----------|-------||
|----------|------------|----------|-------||
|-0--------|-(0)--------|-1--------|-/6----||
|-0--------|-(0)--------|-1--------|-/6----||
|-0--------|-(0)--------|-1--------|-/6----||


   "I've washed my..."
    D5
    S S S S S S S S  S  S S S S S S S    S  S S S S S S S S S S S S S S S
||------------------------------------|-----------------------------------|
||o-----------------------------------|-----------------------------------|
||------------------------------------|-----------------------------------|
||------------------------------------|-----------------------------------|
||o-----------------------------------|-----------------------------------|
||--0-0-0-0-0-0-0-0--0--0-0-0-0-0-0-0-|--0--0-0-0-0-0-0-0-0-0-0-0-0-0-0-0-|
|
|   Q       Q       +E    E   E   E     +E    E   E   Q       E   E   E
||------------------------------------|-----------------------------------|
||o-----------------------------------|-----------------------------------|
||------------------------------------|-----------------------------------|
||------------------------------------|-----------------------------------|
||o-0-------0-------(0)---0---0---0---|-(0)---0---0---0-------0---0---0---|
||--0-------0-------(0)---0---0---0---|-(0)---0---0---0-------0---0---0---|


  Eb5                                 Ab5
  S S S S S S S S  S  S S S S S S S   S S S S S S S S  S  S S S S S S S
|-----------------------------------|-------------------------------------||
|-----------------------------------|------------------------------------o||
|-----------------------------------|-------------------------------------||
|-----------------------------------|-------------------------------------||
|-----------------------------------|------------------------------------o||
|-1-1-1-1-1-1-1-1--1--1-1-1-1-1-1-1-|-6-6-6-6-6-6-6-6--6--6-6-6-6-6-6-6----||
|
| Q       Q       +E    E   E   E     Q       Q       +E    E   E   E
|-----------------------------------|-------------------------------------||
|-----------------------------------|------------------------------------o||
|-----------------------------------|-------------------------------------||
|-----------------------------------|-------------------------------------||
|-1-------1-------(1)---1---1---1---|-6-------6-------(6)---6---6---6----o||
|-1-------1-------(1)---1---1---1---|-6-------6-------(6)---6---6---6-----||


    D5                                                         N.C.
    Q  Q  +E  E E E   +E  E E Q  E E E   Q  Q  +E  E E E   +E  S S E E E E Q
||------------------|------------------|-----------------|----------------||
||o-----------------|------------------|-----------------|---------------o||
||------------------|------------------|-----------------|----------------||
||------------------|------------------|-----------------|----------------||
||o-0--0--(0)-0-0-0-|-(0)-0-0-0--0-0-0-|-0--0--(0)-0-0-0-|-(0)-----------o||
||--0--0--(0)-0-0-0-|-(0)-0-0-0--0-0-0-|-0--0--(0)-0-0-0-|-(0)-3s5-8-7-5-8-4--||
|
|   Q  Q  +E  E E E   +E  E E Q  E E E   Q  Q  +E  E E E   +E  S S E E E E Q
||------------------|------------------|-----------------|----------------||
||o-----------------|------------------|-----------------|---------------o||
||------------------|------------------|-----------------|----------------||
||------------------|------------------|-----------------|----------------||
||o-0--0--(0)-0-0-0-|-(0)-0-0-0--0-0-0-|-0--0--(0)-0-0-0-|-(0)-----------o||
||--0--0--(0)-0-0-0-|-(0)-0-0-0--0-0-0-|-0--0--(0)-0-0-0-|-(0)-3s5-8-7-5-8-4--||


  D5       N.C.                          D5               N.C.
  Gtr I
  E E E Q  S S S S E   E E E E E E E E   E E E Q  E E E   E S S  E  E E  E Q
|--------------------|-----------------|----------------|------------------|
|--------------------|-----------------|----------------|------------------|
|--------------------|-----------------|----------------|------------------|
|--------------------|-----------------|----------------|------------------|
|-0---0--------------|-----------------|-0---0----0-0-0-|------------------|
|-0---0----0-0-0-0-0-|---0-0-0---0-0-0-|-0---0----0-0-0-|---3s5--8--7-5--8-4--|
|
| Gtr II
| E E E Q  S S S S E   E E E E E E E E   E E E Q  E E E   E S S  E  E E  E Q
|--------------------|-----------------|----------------|------------------|
|--------------------|-----------------|----------------|------------------|
|--------------------|-----------------|----------------|------------------|
|--------------------|-----------------|----------------|------------------|
|-0---0--------------|-----------------|-0---0----0-0-0-|------------------|
|-0---0----0-0-0-0-0-|---0-0-0---0-0-0-|-0---0----0-0-0-|---6s8-11-10-8-11-7--|


  D5                                                        N.C.
  E E E Q  E E E   E E E E E S S S S S S   E E E Q  E E E   E S S  E  E E  E Q
|----------------|-----------------------|----------------|----------------|
|----------------|-----------------------|----------------|----------------|
|----------------|-----------------------|----------------|----------------|
|----------------|-----------------------|----------------|----------------|
|-0---0----0-0-0-|---0-0-0---0-0-0-0-0-0-|-0---0----0-0-0-|----------------|
|-0---0----0-0-0-|---0-0-0---0-0-0-0-0-0-|-0---0----0-0-0-|---3s5--8--7-5--8-4-|
|
| E E E Q  E E E   E E E E E S S S S S S   E E E Q  E E E   E S S  E  E E  E Q
|----------------|-----------------------|----------------|----------------|
|----------------|-----------------------|----------------|----------------|
|----------------|-----------------------|----------------|----------------|
|----------------|-----------------------|----------------|----------------|
|-0---0----0-0-0-|---0-0-0---0-0-0-0-0-0-|-0---0----0-0-0-|----------------|
|-0---0----0-0-0-|---0-0-0---0-0-0-0-0-0-|-0---0----0-0-0-|---6s8-11-10-8-11-7-|


  D5      N.C.
                  \4___________________________
  E E E E S S S S Q      +W           +W
|----------------------|------------|--------||
|----------------------|------------|--------||
|----------------------|------------|--------||
|----------------------|------------|--------||
|-0---0----------------|------------|--------||
|-0---0---0-0-0-0-0----|-(0)--------|-(0)----||
|
|                 \4___________________________
| E E E E S S S S Q      +W           +W
|----------------------|------------|--------||
|----------------------|------------|--------||
|----------------------|------------|--------||
|----------------------|------------|--------||
|-0---0----------------|------------|--------||
|-0---0---0-0-0-0-0----|-(0)--------|-(0)----||


 Clean Outro
  Q=121
  (Fmaj7/D)
  Gtr V
   <
   Q      Q     Q     Q       +H          Q     Q
|-17-----------------------|-------------17----------|
|--------18----------------|-------------------18----|
|--------------21----------|-------------------------|
|--------------------24----|-(24)--------------------|
|--------------------------|-------------------------|
|--------------------------|-------------------------|
|
| Gtrs I, II
|  >
| +W                           W
|--------------------------|-------------------------|
|--------------------------|-------------------------|
|--------------------------|-------------------------|
|--------------------------|-------------------------|
|--------------------------|-------------------------|
|-(0)----------------------|-------------------------|
|
| Gtr VI
|  E   Q     Q     Q     E    +E   +H        Q     E
|-----17-------------------|----------------17-------|
|-----------18-------------|----------------------18-|
|-----------------21-------|-------------------------|
|-----------------------24-|-(24)-(24)---------------|
|--------------------------|-------------------------|
|--------------------------|-------------------------|


    Q      H       +Q           Q      Q     Q     Q
|---------------------------|--17------------------------|
|---------------------------|---------18-----------------|
|--21-----------------------|---------------21-----------|
|---------24------(24)------|---------------------24-----|
|---------------------------|----------------------------|
|---------------------------|----------------------------|
|
|   W                           W
|---------------------------|----------------------------|
|---------------------------|----------------------------|
|---------------------------|----------------------------|
|---------------------------|----------------------------|
|---------------------------|----------------------------|
|---------------------------|----------------------------|
|
|  +E   Q     H         +E     +E   Q     Q     Q     E
|---------------------------|------17--------------------|
|-(18)----------------------|------------18--------------|
|------21-------------------|------------------21--------|
|------------24--------(24)-|-(24)-------------------24--|
|---------------------------|----------------------------|
|---------------------------|----------------------------|


  (Fmaj7/D)
  Gtr V
   +H          Q     Q        Q      H       +Q          +W
|-------------17----------|---------------------------|---------*|
|-------------------18----|---------------------------|---------*|
|-------------------------|--21-----------------------|---------*|
|-(24)--------------------|---------24------(24)------|-(24)----*|
|-------------------------|---------------------------|---------*|
|-------------------------|---------------------------|---------*|
|
| Gtr VI
|  +E   +H        Q     E    +E   Q     H         +E     +W
|----------------17-------|---------------------------|---------*|
|----------------------18-|-(18)----------------------|---------*|
|-------------------------|------21-------------------|---------*|
|-(24)-(24)---------------|------------24--------(24)-|-(24)----*|
|-------------------------|---------------------------|---------*|
|-------------------------|---------------------------|---------*|


Duration Legend
---------------
W - whole; H - half; Q - quarter; E - 8th; S - 16th; T - 32nd; X - 64th; a - acciaccatura
+ - note tied to previous; . - note dotted; .. - note double dotted
Uncapitalized letters represent notes that are staccato (1/2 duration)
Irregular groupings are notated above the duration line
Duration letters will always appear directly above the note/fret number it represents the
duration for.  Duration letters with no fret number below them represent rests.  Multi-
bar rests are notated in the form Wxn, where n is the number of bars to rest for.  Low
melody durations appear below the staff

Tablature Legend
----------------
 h   - hammer-on
 p   - pull-off
 b   - bend
 pb  - pre-bend
 r   - bend release (if no number after the r, then release immediately)
 /\  - slide into or out of (from/to "nowhere")
 s   - legato slide
 S   - shift slide
  - natural harmonic
[n]  - artificial harmonic
n(n) - tapped harmonic
 ~   - vibrato
 tr  - trill
 T   - tap
 TP  - trem. picking
 PM  - palm muting
\n/  - tremolo bar dip; n = amount to dip
 \n  - tremolo bar down
 n/  - tremolo bar up
/n\  - tremolo bar inverted dip
 =   - hold bend; also acts as connecting device for hammers/pulls
 <>  - volume swell (louder/softer)
 x   - on rhythm slash represents muted slash
 o   - on rhythm slash represents single note slash

Misc Legend
-----------
 |  - bar
||  - double bar
||o - repeat start
o|| - repeat end
*|  - double bar (ending)
 :  - bar (freetime)
 $  - Segno
 &  - Coda
Tempo markers -  = BPM(8/16=s8/s16), where s8 = swing 8ths, s16 = swing 16th





Comments


Popular The Acacia Strain tabs & chords
4x4 Tabs
Carbomb Tabs
Halcyon 1 Tabs
Jfc 1 Tabs
Skynet Tabs
Skynet 1 Tabs
Smoke Ya Later Intro Tabs
Sun Poison And Skin Cancer Intro Tabs
Tactical Nuke 1 Tabs
Whoa Shut It Down Tabs


Song lyrics



↑ Back to top | Tablatures and chords are parodies/interpretations of the original songs. You may use it for private study, scholarship, research or language learning purposes only
© 2014 AZChords.com Contact us | Privacy policy | DMCA | Add/correct tabs | Request tabs | Top 50 tabs