» » »

The Acacia Strain, Killing On Empty Tabs (ver.2)

Artists:  A B C D E F G H I J K L M N O P Q R S T U V W X Y Z # 

Killing On Empty Tabs (ver.2)

The Acacia Strain Tabs
4/5 (4 votes)
Killing On Empty lessons Tabs too difficult? Try these video lessons and learn fast
this was a HARD song to figure out,it may not all be here but
i think its close enough.

album:i dont know
~=let ring
.=palm mute
p=pull off

Opening sequence 0:00-0:20

C ---0-----------------------------------------|
G -6-------------------------------------------|
D ---------------------------------------------|
F -------0~------------------------------------|
             . . . . . . . . . . . . . . . . .

follow up 0:20-0:53

C ---------------------------------        ------|
G ---------------------------------        ------|
D ---------------------------------        ------|
A#-1-1-1-1-1-1-1-1-1-1-1-1-1-1-1~~~ end on -0~~~-|
F -1-1-1-1-1-1-1-1-1-1-1-1-1-1-1~~~        -0~~~-|
A#-0-0-0-0-0-0-0-0-0-0-0-0-0-0-0~~~        -0~~~-|

coolio pull of riff 0:54-0:57

C -------------------------|
G -------------------------|
D -------------------3p4p3-|
F -0-0-0-0-3p4p3-----------|

And thats it for the intro
Still working on the other parts
Submit corrections

comments powered by Disqus
↑ Back to top | The Acacia Strain Tabs for Killing On Empty. Lyrics for acoustic guitar and electric guitar. Tablatures and chords are parodies/interpretations of the original songs. You may use it for private study, scholarship, research or language learning purposes only