» » »

The Acacia Strain, Jfc Tabs (ver.1)

Artists:  A B C D E F G H I J K L M N O P Q R S T U V W X Y Z # 

Jfc Tabs (ver.1)

The Acacia Strain Tabs
 Rating:
2.9/5 (9 votes)
Jfc lessons Tabs too difficult? Try these video lessons and learn fast
                Band: The Acacia Strain

Tuning: Drop A [A,E,A,D,F#,B

There was a tab for this but it was really wrong, so hear's a good one.
And really, it's not hard to tab at all. It's basically the one chord
over and over and over.

"I AM THE END OF THE WORLD!"

Intro A x4
0:01 - 0:15

B |----------------------------------|
F#|----------------------------------|
D |----------------------------------|
A |----------------------------------|
E |-000~-000~-000~-000~-0~00~000~00~-|
A |-111~-111~-111~-111~-1~11~111~11~-|
PM  ...  ...  ...  ...  . .. ... ..


Intro B x4
0:16 - 0:29

B |-------------------------|
F#|-------------------------|
D |-------------------------|
A |-------------------------|
E |-000-000-000-000--0-0----|
A |-111-111-111-111--1-1-2b-|
PM  ... ... ... ...  . .


Intro C
0:30 - 0:34

B |--------------------------------------|
F#|--------------------------------------|
D |--------------------------------------|
A |-----1~~-----1~~-----1~~-----1~~------|
E |-222-1~~-222-1~~-222-1~~-222-1~~-1111-|
A |-222-1~~-222-1~~-222-1~~-222-1~~-1111-|
PM  ...     ...     ...     ...     ....


Verse A
0:34 - 1:02

B |-----------------------------------------------------------|
F#|-----------------------------------------------------------|
D |-----------------------------------------------------------|
A |---------------------------------------3333-----------2222-|
E |-000-000-000-00-----000-000-000-00----------2222-----------|
A |-111-111-111-11-2b~-111-111-111-11-2b~-----------3333------|
PM  ... ... ... ..     ... ... ... ..

B |-----------------------------------------------------------|
F#|-----------------------------------------------------------|
D |-----------------------------------------------------------|
A |---------------------------------------3333------5555------|
E |-000-000-000-00-----000-000-000-00----------2222-----------|
A |-111-111-111-11-2b~-111-111-111-11-2b~----------------3333-|
PM  ... ... ... ..     ... ... ... ..

B |-----------------------------------------------------------|
F#|-----------------------------------------------------------|
D |-----------------------------------------------------------|
A |---------------------------------------3333-----------2222-|
E |-000-000-000-00-----000-000-000-00----------2222-----------|
A |-111-111-111-11-2b~-111-111-111-11-2b~-----------3333------|
PM  ... ... ... ..     ... ... ... ..

B |-----------------------------------------------------------|
F#|-----------------------------------------------------------|
D |-----------------------------------------------------------|
A |---------------------------------------3333------5555------|
E |-000-000-000-00-----000-000-000-00----------2222-----------|
A |-111-111-111-11-2b~-111-111-111-11-2b~----------------3333-|
PM  ... ... ... ..     ... ... ... ..


Verse B x4
1:03 - 1:16

B |----------------------------------|
F#|----------------------------------|
D |----------------------------------|
A |----------------------------------|
E |-000~-000~-000~-000~-0~00~000~00~-|
A |-111~-111~-111~-111~-1~11~111~11~-|
PM  ...  ...  ...  ...  . .. ... ..


Post-Verse B
1:17 - 1:18

B |-----------|
F#|-----------|
D |-----------|
A |-----------|
E |-0000-0000-|
A |-1111-1111-|
PM  .... ....


Verse C x2
1:18 - 1:28

B |------------------------------------------|
F#|------------------------------------------|
D |------------------------------------------|
A |------------------------------------------|
E |-0000-0000-0000-0000-0000-0000-0000-0000--|
A |-1111-1111-1111-1111-1111-1111-1111-1111--|
PM  .... .... .... .... .... .... .... ....


Verse D
1:29 - 1:43

B |-----------------------------------|
F#|-----------------------------------|
D |-----------------------------------|
A |-----------------------------------|
E |-0000~-0000~-0000~-0000~-0000-0-00-|
A |-1111~-1111~-1111~-1111~-1111-1-11-|
PM  ....  ....  ....  ....  .... . ..


Verse B x4
1:43 - 1:57

B |----------------------------------|
F#|----------------------------------|
D |----------------------------------|
A |----------------------------------|
E |-000~-000~-000~-000~-0~00~000~00~-|
A |-111~-111~-111~-111~-1~11~111~11~-|
PM  ...  ...  ...  ...  . .. ... ..


Chorus
1:58 - 2:26

GUITAR ONE x3

B |-------------------------------------------------------------|
F#|-------------------------------------------------------------|
D |-------------------------------------------------------------|
A |-0~~~~~~~~~~~~~~~~~~~~~~~~~~~~-8~~~~~~~~~~~~~-10~~~~~~~~~~~~-|
E |-0~~~~~~~~~~~~~~~~~~~~~~~~~~~~-8~~~~~~~~~~~~~-10~~~~~~~~~~~~-|
A |-0~~~~~~~~~~~~~~~~~~~~~~~~~~~~-8~~~~~~~~~~~~~-10~~~~~~~~~~~~-|

GUITAR TWO x3

B |-13~~-12~~------13~~-12~~------13~~-12~~------13~~-12~~------|
F#|-----------13~~-----------13~~-----------13~~-----------13~~-|
D |-------------------------------------------------------------|
A |-------------------------------------------------------------|
E |-------------------------------------------------------------|
A |-------------------------------------------------------------|

continued...

GUITAR ONE

B |-------------------------------------------------------------|
F#|-------------------------------------------------------------|
D |-------------------------------------------------------------|
A |-0~~~~~~~~~~~~~~~~~~~~~~~~~~~~-8~----------------------------|
E |-0~~~~~~~~~~~~~~~~~~~~~~~~~~~~-8~-888888888-1010101010101010-|
A |-0~~~~~~~~~~~~~~~~~~~~~~~~~~~~-8~-888888888-1010101010101010-|
PM                                   ......... . . . . . . . .

GUITAR TWO

B |-13~~-12~~------13~~-12~~------13~~-12~~------13~~-12~~------|
F#|-----------13~~-----------13~~-----------13~~-----------13~~-|
D |-------------------------------------------------------------|
A |-------------------------------------------------------------|
E |-------------------------------------------------------------|
A |-------------------------------------------------------------|


Verse B x4
2:28 - 2:56

B |----------------------------------|
F#|----------------------------------|
D |----------------------------------|
A |----------------------------------|
E |-000~-000~-000~-000~-0~00~000~00~-|
A |-111~-111~-111~-111~-1~11~111~11~-|
PM  ...  ...  ...  ...  . .. ... ..
            
Submit corrections

comments powered by Disqus
↑ Back to top | The Acacia Strain Tabs for Jfc. Lyrics for acoustic guitar and electric guitar. Tablatures and chords are parodies/interpretations of the original songs. You may use it for private study, scholarship, research or language learning purposes only