>
 >
Halcyon

Halcyon Guitar Tabs

The Acacia Strain - Halcyon chords, tabs, tablatures, lyrics

Guitar lessons | Add/correct | Request | Top 50 tabs Artists:  A B C D E F G H I J K L M N O P Q R S T U V W X Y Z 0-9

Halcyon Guitar Tabs – The Acacia Strain

CD, Sheet music, Poster

Do you like Halcyon? Share with your friends now
TabsTabs v2
Band: The Acacia Strain

There was already a tab for this, but it wasn't great. 
So, this one will hopefully be better than that one.
Wow. I don't think I've EVER done a tab that's actually in Standard tuning.

Acoustic
0:02 - 0:09

e|-------------------------------|
B|-------3~~~~~~---------3~~~~~~-|
G|-----0~~~~~~~~-------0-~~~~~~~-|
D|---2~~~~~~~~~~-----4~~~~~~~~~~-|
A|-3~~~~~~~~~~~~-3/5~~~~~~~~~~~~-|
E|-------------------------------|

0:10 - 0:24

e|------------------------------------------------------------------|
B|-------3~-----------3-------3----------3~-------------3-------3---|
G|---0------0---0---0---0---0---0------0----0---0-----0---0---0---0-|
D|-2---2------2---2-------0----------2--------2-------------0-------|
A|---------------------------------3---------------3----------------|
E|------------------------------------------------------------------|

e|-------------------------------------------------------------|
B|-------3~-----------3-------3----------3~--------3~~~~~~~~~~-|
G|---0------0---0---0---0---0---0------0----0---0--0~~~~~~~~~~-|
D|-2---2------2---2-------0----------2--------2----2~~~~~~~~~~-|
A|---------------------------------3---------------3~~~~~~~~~~-|
E|-------------------------------------------------------------|

0:25 - 0:39

e|------------------------------------------------------------------|
B|-------3~-----------3-------3----------3~-------------3-------3---|
G|---0------0---0---0---0---0---0------0----0---0-----0---0---0---0-|
D|-2---2------2---2-------0----------2--------2-------------0-------|
A|---------------------------------3---------------3----------------|
E|------------------------------------------------------------------|

e|------------------------------------------------------------|
B|-------3~-----------3-------3----------3~--------3~~~~------|
G|---0------0---0---0---0---0---0------0----0---0--0~~~~-0~~~-|
D|-2---2------2---2-------0----------2--------2----2~~~~-4~~~-|
A|---------------------------------3---------------3~~~~-5~~~-|
E|------------------------------------------------------------|

0:39 - 1:08

e|------------------------------------------------|
B|-3~~333~33----------3---------3------3------3---|
G|-0~~000~00-------0~---0-------0------0----0---0-|
D|-2~~222~22-----4--------4-2~~-2--2~~-2--0-------| X4
A|-3~~333~33-3/5----------------------------------|
E|------------------------------------------------|

1:09 - 1:39

GUITAR ONE X8

e|------------------------------------------------------------------|
B|-------3~-----------3-------3----------3~-------------3-------3---|
G|---0------0---0---0---0---0---0------0----0---0-----0---0---0---0-|
D|-2---2------2---2-------0----------2--------2-------------0-------|
A|---------------------------------3---------------3----------------|
E|------------------------------------------------------------------|

e|-------------------------------------------------------------|
B|-------3~-----------3-------3----------3~--------3~~~~~~~~~~-|
G|---0------0---0---0---0---0---0------0----0---0--0~~~~~~~~~~-|
D|-2---2------2---2-------0----------2--------2----2~~~~~~~~~~-|
A|---------------------------------3---------------3~~~~~~~~~~-|
E|-------------------------------------------------------------|

GUITAR TWO

e|---------------------------------------------------|
B|---------------------------------------------------|
G|-------2-4~~-----2-4-2-----------------------------|
D|-2-4-5-------245-------5-4---2-4-4br---2-4-4br-2-0-|
A|---------------------------3---------3-------------|
E|---------------------------------------------------|

e|--------------------------------------------2h3p2-------|
B|---------------------------0h1-1/3-5~~~-5-7-------5-3~~-|
G|-------2-4~~-----2-4-2-----------------------------------|
D|-2-4-5-------245-------5-4-------------------------------|
A|---------------------------------------------------------|
E|---------------------------------------------------------|

e|---------------------------------------------------|
B|---------------------------------------------------|
G|-------2-4~~-----2-4-2-----------------------------|
D|-2-4-5-------245-------5-4---2-4-4br---2-4-4br-2-0-|
A|---------------------------3---------3-------------|
E|---------------------------------------------------|

e|---------------------------------------------------------|
B|---------------------------0h1-1/3-5~~~------------------|
G|-------2-4~~-----2-4-2------------------4h5p4-2-0--------|
D|-2-4-5-------245-------5-4------------------------4~-----|
A|-----------------------------------------------------5~~-|
E|---------------------------------------------------------|

GUITAR THREE

e|---------------------------------------------------|
B|---------------------------------------------------|
G|------This-is-to-show-that-it-doesn't-come-in------|
D|--------until-the-2nd-measure-of-GUITAR TWO--------|
A|---------------------------------------------------|
E|---------------------------------------------------|

e|---------------------------------------------5h7p5-------|
B|---------------------------3/5-5/7-8~~~-8-10-------8-7~~-|
G|-------5-7~~-----5-7-5-----------------------------------|
D|-5-7-9-------579-------9-7-------------------------------|
A|---------------------------------------------------------|
E|---------------------------------------------------------|

e|---------------------------------------------------|
B|---------------------------------------------------|
G|-------5-7~~-----5-7-5-----------------------------|
D|-5-7-9-------579-------9-7---5-7-7br---5-7-7br-5-4-|
A|---------------------------7---------7-------------|
E|---------------------------------------------------|

e|---------------------------------------------------------|
B|---------------------------3/5-5/7-8~~~------------------|
G|-------5-7~~-----5-7-5------------------7h9p7-5-4-2~-----|
D|-5-7-9-------579-------9-7---------------------------4~~-|
A|---------------------------------------------------------|
E|---------------------------------------------------------|

1:39 - 2:07

e|------------------------------------------------|
B|-3~~333~33----------3---------3------3------3---|
G|-0~~000~00-------0~---0-------0------0----0---0-|
D|-2~~222~22-----4--------4-2~~-2--2~~-2--0-------| X4
A|-3~~333~33-3/5----------------------------------|
E|------------------------------------------------|

2:08 - 2:12

GUITAR ONE

e|------------------------|
B|-3~~~~~~~~~-------------|
G|-0~~~~~~~~~-0~~~~~~~~~~-|
D|-2~~~~~~~~~-4~~~~~~~~~~-|
A|-3~~~~~~~~~-5~~~~~~~~~~-|
E|------------------------|

GUITAR TWO

e|------------------------|
B|------------------------|
G|------------------pick--|
D|------------------slide-|
A|------------------\\\\\-|
E|------------------\\\\\-|

2:12 - 

GUITAR ONE X8

e|------------------------------------------------------------------|
B|-------3~-----------3-------3----------3~-------------3-------3---|
G|---0------0---0---0---0---0---0------0----0---0-----0---0---0---0-|
D|-2---2------2---2-------0----------2--------2-------------0-------|
A|---------------------------------3---------------3----------------|
E|------------------------------------------------------------------|

e|-------------------------------------------------------------|
B|-------3~-----------3-------3----------3~--------3~~~~~~~~~~-|
G|---0------0---0---0---0---0---0------0----0---0--0~~~~~~~~~~-|
D|-2---2------2---2-------0----------2--------2----2~~~~~~~~~~-|
A|---------------------------------3---------------3~~~~~~~~~~-|
E|-------------------------------------------------------------|

GUITAR TWO (With Distortion) X4

e|-------------------------------------------------------------------|
B|-------------------------------------------------------------------|
G|--------------------------------5~~~~~~~~~~~~~~~~~~~~~~~~~~~~~~~~~-|
D|-2~~~~~~~~~~~~~~~~~~~~~~~~~~~~~-5~~~~~~~~~~~~~~~~~~~~~~~~~~~~~~~~~-|
A|-2~~~~~~~~~~~~~~~~~~~~~~~~~~~~~-3~~~~~~~~~~~~~~~~~~~~~~~~~~~~~~~~~-|
E|-0~~~~~~~~~~~~~~~~~~~~~~~~~~~~~------------------------------------|

GUITAR THREE (With Wah, Distortion)

e|----------------------------------------------------------------|
B|----------------------------------------------------------------|
G|-4/9~~~~-11-12-14-16br~~-14p12p11~-11h12h14p12-11h12p11\7-9~~~~-|
D|----------------------------------------------------------------|
A|----------------------------------------------------------------|
E|----------------------------------------------------------------|

e|---------------------17b(17)~~~19p17p15~-14h15h17p15-14h15p14\10-12~-10~-|
B|-------------------------------------------------------------------------|
G|-9\7-7-4~-5-5~-4---------------------------------------------------------|
D|-----------------5~~-----------------------------------------------------|
A|-------------------------------------------------------------------------|
E|-------------------------------------------------------------------------|

e|-7~-8~-7\\\-/7~-7\5\3~-2h3h5p3-2h3p2------------------|
B|------------------------------------3-3~~-5~~-8~~~~~~-|
G|------------------------------------------------------|
D|------------------------------------------------------|
A|------------------------------------------------------|
E|------------------------------------------------------|





Comments


Popular The Acacia Strain tabs & chords
Carbomb Bass Tabs
4x4 Intro Tabs
All She Wrote Intro Tabs
Cable Ready Techno Slut Intro Tabs
Halcyon 1 Tabs
Jfc 1 Tabs
See You Next Tuesday Tabs
Smoke Ya Later 1 Tabs
Smoke Ya Later Intro Tabs
Tactical Nuke 1 Tabs


Song lyrics



↑ Back to top | Tablatures and chords are parodies/interpretations of the original songs. You may use it for private study, scholarship, research or language learning purposes only
© 2014 AZChords.com Contact us | Privacy policy | DMCA | Add/correct tabs | Request tabs | Top 50 tabs