» » »

Carbomb Bass tabs (ver.1)

Artists:  A B C D E F G H I J K L M N O P Q R S T U V W X Y Z # 

Carbomb Bass tabs (ver.1)

The Acacia Strain
Rating:
0/5 (0 votes)

Hard to play? Try these video lessons and learn fast.
                Intro
|----------|
|----------|
|----------|
|--0-0-----|

Main Riff              		       	           4x
|-----------------------|----------------------------|
|-----------------------|----------------------------|
|--1-1~--1111-1-1-1-1-1-|-1-1~--111------------------|
|--0-0~--0000-0-0-0-0-0-|-0-0~--000-5p4-0-0-3p2-0-0--|

Pause (part with only guitars)

“This is true crime”                  4x
|-------------------|-------------------|
|-------------------|-------------------|
|-------------------|-------------------|
|--5p4-0-0-3p2-0-0--|-------------------|

End Riff
|-------------------|-------------------|
|-------------------|-------------------|
|-------------------|-------------------|
|--5p4-0-0-3p2-0-0--|-------------------|

End Note
|----------|
|----------|
|----------|
|--0-0-----|
            
Hard to play? Try these video lessons and learn fast. | Correct




comments powered by Disqus
↑ Back to top | Tablatures and chords are parodies/interpretations of the original songs. You may use it for private study, scholarship, research or language learning purposes only