» » »

All She Wrote Tabs (ver.1)

Artists:  A B C D E F G H I J K L M N O P Q R S T U V W X Y Z # 

All She Wrote Tabs (ver.1)

The Acacia Strain
Rating:
0/5 (0 votes)

Hard to play? Try these video lessons and learn fast.
                (Intro)
This is only the intro to the song, and since they had like 3 guitarists on this album 
only have the first one tabbed.

Tuning: drop A#

0:00-0:05

|-------------------------------------------------------------|
|------17-------------17-16-------17---17-17-16-16-15-15-14-14|
|------20-------------20-19-------20---20-20-19-19-18-18-17-17|
|0-0-0----0-0-0-0-0-0-------0-0-0----0------------------------|
|0-0-0----0-0-0-0-0-0-------0-0-0----0------------------------|
|0-0-0----0-0-0-0-0-0-------0-0-0----0------------------------|

0:05-0:11

|-------------------------------------------------|
|------17-------------17-16-------17---17-17-17-17|
|------20-------------20-19-------20---20-20-20-20|
|0-0-0----0-0-0-0-0-0-------0-0-0----0------------|
|0-0-0----0-0-0-0-0-0-------0-0-0----0------------|
|0-0-0----0-0-0-0-0-0-------0-0-0----0------------|

0:11-0:16

|-------------------------------------------------------------|
|------17-------------17-16-------17---17-17-16-16-15-15-14-14|
|------20-------------20-19-------20---20-20-19-19-18-18-17-17|
|0-0-0----0-0-0-0-0-0-------0-0-0----0------------------------|
|0-0-0----0-0-0-0-0-0-------0-0-0----0------------------------|
|0-0-0----0-0-0-0-0-0-------0-0-0----0------------------------|

0:16-0:22

|-------------------------------------------------|
|------17-------------17-16-------17---17-17-17-17|
|------20-------------20-19-------20---20-20-20-20|
|0-0-0----0-0-0-0-0-0-------0-0-0----0------------|
|0-0-0----0-0-0-0-0-0-------0-0-0----0------------|
|0-0-0----0-0-0-0-0-0-------0-0-0----0------------|
            
Hard to play? Try these video lessons and learn fast. | Correct




comments powered by Disqus
↑ Back to top | Tablatures and chords are parodies/interpretations of the original songs. You may use it for private study, scholarship, research or language learning purposes only