» » »

The Acacia Strain, 4x4 Tabs (ver.1)

Artists:  A B C D E F G H I J K L M N O P Q R S T U V W X Y Z # 

4x4 Tabs (ver.1)

The Acacia Strain Tabs
 Rating:
3.8/5 (5 votes)
4x4 lessons Tabs too difficult? Try these video lessons and learn fast
1
                -------------------------------------------------------------------------------
-------------------------------------------------------------------------------

Tuning: Drop A
(0:00)-(0:13)
|-----------------------|--------------------------------------------------|
|-----------------------|--------------------------------------------------|
|-----------------------|--------------------------------------------------|
|-----------------------|--------------------------------------------------|
|--7----2--3--0~-----7--|--2--3--0-----------------------------------------|
|--7----2--3--0~-----7--|--2--3--0-00-3-0-5-0-3-0--------------------------|

(0:13-0:26)
|--------------------------|-----------------------------------------------|
|--------------------------|-----------------------------------------------|
|--------------------------|-----------------------------------------------|
|--------------------------|-----------------------------------------------
|--7b----2--3--0~---xx-xxx-|---7----2--3--0--------------------------------|
|--7b----2--3--0~---xx-xxx-|---7----2--3--0-00-3-0-5-0-3-0-----------------|
                  
(0:27)-(0:37)
|-------------------------------|------------------------------------------|
|-------------------------------|------------------------------------------|
|-------------------------------|------------------------------------------|
|-------------------------------|------------------------------------------|
|--777----222--333--00--xxxxx---|--777----222--333--00---------------------|
|--777----222--333--00--xxxxx---|--777----222--333--00-00-3-0-5-0-3-0------|
(0:38)-(0:42)
|--------------------------------------------------------------------------|
|--------------------------------------------------------------------------|
|--------------------------------------------------------------------------|
|--------------------------------------------------------------------------|
|--7----2--3--0----3-------------------------------------------------------|
|--7----2--3--0----3-------------------------------------------------------|

|--------------------------------------------------------------------------|
|--------------------------------------------------------------------------|
|--------------------------------------------------------------------------|
|--------------------------------------------------------------------------|
|-----3h5--3h5----3h5----3h5--3h5--(5ph)-------3-2-0-----------------------|
|-0000---00---0000---0000---00---00------------3-2-0-----------------------|
                       (pinch harmonic first time only)

|--------------------------------------------------------------------------|
|--------------------------------------------------------------------------|
|--------------------------------------------------------------------------|
|--------------------------------------------------------------------------|
|----7h8-7h8--7h8-7h8--7h8-(8ph)--3-2-0------------------------------------|
|--00---0---00---0---00---0-------3-2-0------------------------------------|

|--------------------------------------------------------------------------|
|--------------------------------------------------------------------------|
|--------------------------------------------------------------------------|
|---------------------------------[x3]----------------------11b------------|
|-------------------------------------------------12-11-10-----------------|
|---12-11-10--12-11-10--12--11-10--------12-11-10--------------------------|

|--------------------------------------------------------------------------|
|--------------------------------------------------------------------------|
|--------------------------------------------------------------------------|
|--------------------------------------------------------------------------|
|--x-xxx-x-x-x-xxx-x-x-1-----x-xxxxxx---5--3--2--3--2-0--------------------|
|--x-xxx-x-x-x-xxx-x-x-1-----x-xxxxxx---5--3--2--3--2-0---333322220000-x3--|

|--------------------------------------------------------------------------|
|--------------------------------------------------------------------------|
|--------------------------------------------------------------------------|
|--------------------------------------------------------------------------|
|--0~-1~--3~--x-1---x-xxx--0-1--5-3-2-3-2-0----------------0-1-------------|
|--0~-1~--3~--x-1---x-xxx--0-1--5-3-2-3-2-0----------------0-1-------------|




| /  slide up
| \  slide down
| h  hammer-on
| p  pull-off
| ~  vibrato
| +  harmonic
| x  Mute note
===============================================================================
            
Submit corrections

comments powered by Disqus
↑ Back to top | The Acacia Strain Tabs for 4x4. Lyrics for acoustic guitar and electric guitar. 1 Tablatures and chords are parodies/interpretations of the original songs. You may use it for private study, scholarship, research or language learning purposes only