» » »

Carry Me Home Bass tabs (ver.1)

Artists:  A B C D E F G H I J K L M N O P Q R S T U V W X Y Z # 

Carry Me Home Bass tabs (ver.1)

The Abuse
Rating:
0/5 (0 votes)

Hard to play? Try these video lessons and learn fast.
                Carry me home by: The Abuse 
Written by Timothy Ayers

|-----------------------------------------------------------------|
|-----------------------------------------------------------------|
|-5--3-3-5-3-3-5-3-5-3-3-5-3-3-5-3--------------------------------|
|----------------------------------5-3-3-5-3-3-5-3-5-3-3-5-3-3-5-3| Play X2

|----------------------|
|-3--------------------|
|----5--55-5-3-5-3-----|
|------------------5-3-| Play X4 (Chorus) Repeat this process 3 times

|------------------------------------|
|-3----------------------------------|
|----5--55-5-3-5-3-------------------|
|------------------5-3-000-000---3--0| Outro
            
Hard to play? Try these video lessons and learn fast. | Correct




comments powered by Disqus
↑ Back to top | Tablatures and chords are parodies/interpretations of the original songs. You may use it for private study, scholarship, research or language learning purposes only