» » »

Silently Tabs (ver.1)

Artists:  A B C D E F G H I J K L M N O P Q R S T U V W X Y Z # 

Silently Tabs (ver.1)

That Dog
Rating:
0/5 (0 votes)

Hard to play? Try these video lessons and learn fast.
                that dog - silently

I am only responsible for submitting this.


Guitar 1
Open E Tuning

Another shortened tab, but has all the basic parts.
You should have no trouble playing this


E ||--5--5--5--5--4--------|------------------|--5--5--5--5--4--4--4--4--|
B ||--4--4--4--4--0--------|------------------|--4--4--4--4--0--0--0--0--|
G#||--5--5--5--5--5--------|------------------|--5--5--5--5--5--5--5--5--|
E ||-----------------------|------------------|--------------------------|
B ||-----------------------|------------------|--------------------------|
E ||-----------------------|------------------|--------------------------|


                                                                                 
--4--4--4--4--4--4--4--4--|--5--5--5--5--4--4--4--4--|--4--4--4--4--4--4--4--4--|
--5--5--5--5--5--5--5--5--|--4--4--4--4--0--0--0--0--|--5--5--5--5--5--5--5--5--|
--3--3--3--3--3--3--3--3--|--5--5--5--5--5--5--5--5--|--3--3--3--3--3--3--3--3--|
--------------------------|--------------------------|--------------------------|
--------------------------|--------------------------|--------------------------|
--------------------------|--------------------------|--------------------------|


                                                                                 
--5--5--5--5--4--4--4--4--|--4--4--4--4--4--4--4--4--|--5--5--5--5--4--4--4--4--|
--4--4--4--4--0--0--0--0--|--5--5--5--5--5--5--5--5--|--4--4--4--4--0--0--0--0--|
--5--5--5--5--5--5--5--5--|--3--3--3--3--3--3--3--3--|--5--5--5--5--5--5--5--5--|
--------------------------|--------------------------|--------------------------|
--------------------------|--------------------------|--------------------------|
--------------------------|--------------------------|--------------------------|


                                                                             
--0----------------|------------------|------------------|------------------|
--0----------------|------------------|------------------|------------------|
--0----------------|------------------|------------------|------------------|
--0----------------|------------------|------------------|------------------|
--0----------------|------------------|------------------|------------------|
--0----------------|------------------|------------------|------------------|


                                                                            
------------------|------------------|------------------|------------------|
------------------|------------------|------------------|------------------|
------------------|------------------|------------------|------------------|
------------------|------------------|------------------|------------------|
------------------|------------------|------------------|------------------|
------------------|------------------|------------------|------------------|


                                                                                
------------------|-------------------|--0-----------------|-------------------|
------------------|-------------------|--------------------|-------------------|
------------------|-------------------|--------------------|-------------------|
------------------|--0----------------|--------------------|-------------------|
------------------|-------------------|---------------5\---|--0----------------|
------------------|-------------------|--------------------|--0----------------|


                                                                               
--------------------|------------------|------------------|-------------------|
--0-----------------|------------------|------------------|-------------------|
--------------------|------------------|------------------|-------------------|
--------------------|------------------|------------------|--0----------------|
---------------0----|------------------|------------------|--0----------------|
--------------------|------------------|------------------|--0----------------|


                                                                         
------------------|--5--5--5--5--4--4--4--4--|--4--4--4--4--4--4--4--4--|
------------------|--4--4--4--4--0--0--0--0--|--5--5--5--5--5--5--5--5--|
------------------|--5--5--5--5--5--5--5--5--|--3--3--3--3--3--3--3--3--|
------------------|--------------------------|--------------------------|
------------------|--------------------------|--------------------------|
------------------|--------------------------|--------------------------|


                                                                                 
--5--5--5--5--4--4--4--4--|--4--4--4--4--4--4--4--4--|--5--5--5--5--4--4--4--4--|
--4--4--4--4--0--0--0--0--|--5--5--5--5--5--5--5--5--|--4--4--4--4--0--0--0--0--|
--5--5--5--5--5--5--5--5--|--3--3--3--3--3--3--3--3--|--5--5--5--5--5--5--5--5--|
--------------------------|--------------------------|--------------------------|
--------------------------|--------------------------|--------------------------|
--------------------------|--------------------------|--------------------------|


                                                                           
--4--4--4--4--4--4--4--4--|--5--5--5--5--4--4--4--4--|--0----------------||
--5--5--5--5--5--5--5--5--|--4--4--4--4--0--0--0--0--|--0----------------||
--3--3--3--3--3--3--3--3--|--5--5--5--5--5--5--5--5--|--0----------------||
--------------------------|--------------------------|--0----------------||
--------------------------|--------------------------|--0----------------||
--------------------------|--------------------------|--0----------------||

Guitar 2
Open E Tuning

E ||------------------|------------------|------------------|------------------|
B ||------------------|------------------|------------------|------------------|
G#||------------------|------------------|------------------|------------------|
E ||------------------|------------------|------------------|------------------|
B ||------------------|------------------|------------------|------------------|
E ||------------------|------------------|------------------|------------------|


                                                                            
------------------|------------------|------------------|------------------|
------------------|------------------|------------------|------------------|
------------------|------------------|------------------|------------------|
------------------|------------------|------------------|------------------|
------------------|------------------|------------------|------------------|
------------------|------------------|------------------|------------------|


                                                                            
------------------|------------------|------------------|------------------|
------------------|------------------|------------------|------------------|
------------------|------------------|------------------|------------------|
------------------|------------------|------------------|------------------|
------------------|------------------|------------------|------------------|
------------------|------------------|------------------|------------------|


                                                                            
------------------|------------------|------------------|------------------|
------------------|------------------|------------------|------------------|
------------------|------------------|------------------|------------------|
------------------|------------------|------------------|------------------|
------------------|------------------|------------------|------------------|
------------------|------------------|------------------|------------------|


                                                                            
------------------|------------------|------------------|------------------|
------------------|------------------|------------------|------------------|
------------------|------------------|------------------|------------------|
------------------|------------------|------------------|------------------|
------------------|------------------|------------------|------------------|
------------------|------------------|------------------|------------------|


                                                                            
------------------|------------------|------------------|------------------|
------------------|------------------|------------------|------------------|
------------------|------------------|------------------|------------------|
------------------|------------------|------------------|------------------|
------------------|------------------|------------------|------------------|
------------------|------------------|------------------|------------------|


                                                                                        
------------------|-------------------|--------------------------|---------------------|
------------------|-------------------|--------------------------|---------------------|
------------------|--0----------------|--------------------------|---------------------|
------------------|--0----------------|--------------------------|---------------------|
------------------|--0----------------|--2--2--2--2--2--2--2--2--|--0------------------|
------------------|--0----------------|--------------------------|-------------4----4--|


                                                                                           
-----------------------|--------------------|-----0---------0------|-----0---------0------|
-----------------------|--------------------|--0---------0---------|--0---------0---------|
-----------------------|--------------------|----------------------|----------------------|
-----------------------|--------------------|----------------------|----------------------|
-----------------------|--------------------|----------------------|----------------------|
--5----5----5--7----5--|--4--------0--------|----------------------|----------------------|


                                                      
--------------------------------|-------------------||
--------------------------------|-------------------||
--5----5----5----5----5----5----|--3----------------||
--------------------------------|-------------------||
--------------------------------|-------------------||
--------------------------------|-------------------||
            
Hard to play? Try these video lessons and learn fast. | Correct




comments powered by Disqus
↑ Back to top | Tablatures and chords are parodies/interpretations of the original songs. You may use it for private study, scholarship, research or language learning purposes only