» » »

That Dog, She Looks At Me Tabs (ver.1)

Artists:  A B C D E F G H I J K L M N O P Q R S T U V W X Y Z # 

She Looks At Me Tabs (ver.1)

That Dog Tabs
 Rating:
4/5 (4 votes)
She Looks At Me lessons Tabs too difficult? Try these video lessons and learn fast
                that dog - she looks at me

I am only responsible for submitting this.


Guitar
Open E Tuning

E ||--------------------------------------|--------------------------------------|
B ||--------------------------------------|--------------------------------------|
G#||--------------------------------------|--------------------------------------|
E ||--------0--------0--------0--------0--|--------0--------0--------0--------0--|
B ||-----0--------5--------0--------7-----|-----0--------5--------0--------0-----|
E ||--0--------5--------0--------7--------|--0--------5--------0--------0--------|


                                                                                3x
|---------------------------------------|---------------------------------------||
|---------------------------------------|---------------------------------------||
|*--------------------------------------|--------------------------------------*||
|*--------0--------0--------0--------0--|--------0--------0--------0--------0--*||
|------5--------7--------0--------5-----|-----0--------5--------0--------0------||
|---5--------7--------0--------5--------|--0--------5--------0--------0---------||


                                                                                  
------------------------------------||-------------------------------------------|
------------------------------------||-------------------------------------------|
------------------------------------||*------------------------------------------|
--------0--------0--------0---------||*--5--5-5-5--7--7-7-7--0--0-0-0--5--5-5-5--|
-----0--------5--------0------------||---5--5-5-5--7--7-7-7--0--0-0-0--5--5-5-5--|
--0--------5--------0--------0------||---5--5-5-5--7--7-7-7--0--0-0-0--5--5-5-5--|


                                           3x                                           
-------------------------------------------||------------------------------------------|
-------------------------------------------||------------------------------------------|
------------------------------------------*||------------------------------------------|
--0--0-0-0--5--5-5-5--0--0-0-0--0--0-0-0--*||--0--0-0-0--5--5-5-5--0--0-0-0--7--7-7-7--|
--0--0-0-0--5--5-5-5--0--0-0-0--0--0-0-0---||--0--0-0-0--5--5-5-5--0--0-0-0--7--7-7-7--|
--0--0-0-0--5--5-5-5--0--0-0-0--0--0-0-0---||--0--0-0-0--5--5-5-5--0--0-0-0--7--7-7-7--|


                                                                                     
---------------------------------------||-------------------------------------------|
---------------------------------------||-------------------------------------------|
---------------------------------------||*------------------------------------------|
--0--0-0-0--5--5-5-5--0--0-0-0--0------||*--5--5-5-5--7--7-7-7--0--0-0-0--5--5-5-5--|
--0--0-0-0--5--5-5-5--0--0-0-0--0------||---5--5-5-5--7--7-7-7--0--0-0-0--5--5-5-5--|
--0--0-0-0--5--5-5-5--0--0-0-0--0------||---5--5-5-5--7--7-7-7--0--0-0-0--5--5-5-5--|


                                           4x                                    
-------------------------------------------||-----------------------------------|
-------------------------------------------||-----------------------------------|
------------------------------------------*||-----------------------------------|
--0--0-0-0--5--5-5-5--0--0-0-0--0--0-0-0--*||--0--0-0-0--5--5-5-5--0------------|
--0--0-0-0--5--5-5-5--0--0-0-0--0--0-0-0---||--0--0-0-0--5--5-5-5--0------------|
--0--0-0-0--5--5-5-5--0--0-0-0--0--0-0-0---||--0--0-0-0--5--5-5-5--0------------|


                                                                                    
------------------------------------------|---------------------------------------||
------------------------------------------|---------------------------------------||
------------------------------------------|---------------------------------------||
--0--0-0-0--5--5-5-5--0--0-0-0--7--7-7-7--|--0--0-0-0--5--5-5-5--0--0-0-0--0------||
--0--0-0-0--5--5-5-5--0--0-0-0--7--7-7-7--|--0--0-0-0--5--5-5-5--0--0-0-0--0------||
--0--0-0-0--5--5-5-5--0--0-0-0--7--7-7-7--|--0--0-0-0--5--5-5-5--0--0-0-0--0------||
            
Submit corrections

comments powered by Disqus
↑ Back to top | That Dog Tabs for She Looks At Me. Lyrics for acoustic guitar and electric guitar. Tablatures and chords are parodies/interpretations of the original songs. You may use it for private study, scholarship, research or language learning purposes only