>
 >
One Summer Night

One Summer Night Guitar Tabs

That Dog - One Summer Night chords, tabs, tablatures, lyrics

Guitar lessons | Add/correct | Request | Top 50 tabs Artists:  A B C D E F G H I J K L M N O P Q R S T U V W X Y Z 0-9

One Summer Night Guitar Tabs – That Dog

CD, Sheet music, Poster

Do you like One Summer Night? Share with your friends now
Tabs
that dog - one summer night

I am only responsible for submitting this.


Guitar
Tune 1/2 step down


D#||------------------|------------------|--11--11--11--11--11--11--11--11--|
A#||------------------|------------------|--11--11--11--11--11--11--11--11--|
F#||------------------|------------------|--12--12--12--12--12--12--12--12--|
C#||------------------|------------------|--13--13--13--13--13--13--13--13--|
G#||------------------|------------------|--13--13--13--13--13--13--13--13--|
D#||------------------|------------------|--11--11--11--11--11--11--11--11--|


                                                                                           
--3--3--3--7--7--7--7--7--||---11--11--11--11--11--11--11--11--|--3--3--3--7--7--7--7--7--|
--3--3--3--7--7--7--7--7--||---11--11--11--11--11--11--11--11--|--3--3--3--7--7--7--7--7--|
--4--4--4--8--8--8--8--8--||*--12--12--12--12--12--12--12--12--|--4--4--4--8--8--8--8--8--|
--5--5--5--9--9--9--9--9--||*--13--13--13--13--13--13--13--13--|--5--5--5--9--9--9--9--9--|
--5--5--5--9--9--9--9--9--||---13--13--13--13--13--13--13--13--|--5--5--5--9--9--9--9--9--|
--3--3--3--7--7--7--7--7--||---11--11--11--11--11--11--11--11--|--3--3--3--7--7--7--7--7--|


                                                              
--11--11--11--11--11--11--11--11--|--3--3--3--7--7--7--7--7--|
--11--11--11--11--11--11--11--11--|--3--3--3--7--7--7--7--7--|
--12--12--12--12--12--12--12--12--|--4--4--4--8--8--8--8--8--|
--13--13--13--13--13--13--13--13--|--5--5--5--9--9--9--9--9--|
--13--13--13--13--13--13--13--13--|--5--5--5--9--9--9--9--9--|
--11--11--11--11--11--11--11--11--|--3--3--3--7--7--7--7--7--|


                                                              
--11--11--11--11--11--11--11--11--|--3--3--3--7--7--7--7--7--|
--11--11--11--11--11--11--11--11--|--3--3--3--7--7--7--7--7--|
--12--12--12--12--12--12--12--12--|--4--4--4--8--8--8--8--8--|
--13--13--13--13--13--13--13--13--|--5--5--5--9--9--9--9--9--|
--13--13--13--13--13--13--13--13--|--5--5--5--9--9--9--9--9--|
--11--11--11--11--11--11--11--11--|--3--3--3--7--7--7--7--7--|


                                                                             
--8---8---8---8---8---8---8---8---|--3--3--3--3--3--3--3--3---||--3----3----|
--8---8---8---8---8---8---8---8---|--3--3--3--3--3--3--3--3---||--3----3----|
--9---9---9---9---9---9---9---9---|--4--4--4--4--4--4--4--4--*||--4----4----|
--10--10--10--10--10--10--10--10--|--5--5--5--5--5--5--5--5--*||--5----5----|
--10--10--10--10--10--10--10--10--|--5--5--5--5--5--5--5--5---||--5----5----|
--8---8---8---8---8---8---8---8---|--3--3--3--3--3--3--3--3---||--3----3----|


                       3x                                              
|---5--------5---------||--8---------8---------||---5--------5--------|
|---5--------5---------||--8---------8---------||---5--------5--------|
|*--6--------6--------*||--9---------9---------||*--6--------6--------|
|*--7--------7--------*||--10--------10--------||*--7--------7--------|
|---7--------7---------||--10--------10--------||---7--------7--------|
|---5--------5---------||--8---------8---------||---5--------5--------|


                                                                                     
--8---------8----------||----------------------||---11--11--11--11--11--11--11--11--|
--8---------8----------||---3--------3---------||---11--11--11--11--11--11--11--11--|
--9---------9---------*||*--4--------4--------*||*--12--12--12--12--12--12--12--12--|
--10--------10--------*||*--5--------5--------*||*--13--13--13--13--13--13--13--13--|
--10--------10---------||---5--------5---------||---13--13--13--13--13--13--13--13--|
--8---------8----------||---3--------3---------||---11--11--11--11--11--11--11--11--|


                                                                                         
--3--3--3--7--7--7--7--7--|--11--11--11--11--11--11--11--11--|--3--3--3--7--7--7--7--7--|
--3--3--3--7--7--7--7--7--|--11--11--11--11--11--11--11--11--|--3--3--3--7--7--7--7--7--|
--4--4--4--8--8--8--8--8--|--12--12--12--12--12--12--12--12--|--4--4--4--8--8--8--8--8--|
--5--5--5--9--9--9--9--9--|--13--13--13--13--13--13--13--13--|--5--5--5--9--9--9--9--9--|
--5--5--5--9--9--9--9--9--|--13--13--13--13--13--13--13--13--|--5--5--5--9--9--9--9--9--|
--3--3--3--7--7--7--7--7--|--11--11--11--11--11--11--11--11--|--3--3--3--7--7--7--7--7--|


                                                              
--11--11--11--11--11--11--11--11--|--3--3--3--7--7--7--7--7--|
--11--11--11--11--11--11--11--11--|--3--3--3--7--7--7--7--7--|
--12--12--12--12--12--12--12--12--|--4--4--4--8--8--8--8--8--|
--13--13--13--13--13--13--13--13--|--5--5--5--9--9--9--9--9--|
--13--13--13--13--13--13--13--13--|--5--5--5--9--9--9--9--9--|
--11--11--11--11--11--11--11--11--|--3--3--3--7--7--7--7--7--|


                                                                             
--8---8---8---8---8---8---8---8---|--3--3--3--3--3--3--3--3---||--3----3----|
--8---8---8---8---8---8---8---8---|--3--3--3--3--3--3--3--3---||--3----3----|
--9---9---9---9---9---9---9---9---|--4--4--4--4--4--4--4--4--*||--4----4----|
--10--10--10--10--10--10--10--10--|--5--5--5--5--5--5--5--5--*||--5----5----|
--10--10--10--10--10--10--10--10--|--5--5--5--5--5--5--5--5---||--5----5----|
--8---8---8---8---8---8---8---8---|--3--3--3--3--3--3--3--3---||--3----3----|


                       3x                                                                   
|---5--------5---------||--8---------8---------|--5--------5--------|--8---------8---------|
|---5--------5---------||--8---------8---------|--5--------5--------|--8---------8---------|
|*--6--------6--------*||--9---------9---------|--6--------6--------|--9---------9---------|
|*--7--------7--------*||--10--------10--------|--7--------7--------|--10--------10--------|
|---7--------7---------||--10--------10--------|--7--------7--------|--10--------10--------|
|---5--------5---------||--8---------8---------|--5--------5--------|--8---------8---------|


                                                                                     
--5--------5--------|--8---------8---------|--------------------|-------------------|
--5--------5--------|--8---------8---------|--3--------3--------|--3----------------|
--6--------6--------|--9---------9---------|--4--------4--------|--4----------------|
--7--------7--------|--10--------10--------|--5--------5--------|--5----------------|
--7--------7--------|--10--------10--------|--5--------5--------|--5----------------|
--5--------5--------|--8---------8---------|--3--------3--------|--3----------------|


                                                                                            
----------------------|-----------------3----|----------------------|----------------------|
-----------------3----|----------------------|-----------------0----|-----------------3----|
------------0---------|------------0---------|------------0---------|------------0---------|
-------2--------------|-------2--------------|-------2--------------|-------2--------------|
--0-------------------|--3-------------------|--0-------------------|--3-------------------|
----------------------|----------------------|----------------------|----------------------|


                                                                                            
-----------------3----|----------------------|----------------------|-------3--------------|
----------------------|-----------------0----|-----------------0----|--3---------3----0----|
------------0---------|------------0---------|------------0---------|----------------------|
-------2--------------|-------2--------------|-------0--------------|----------------------|
--0-------------------|--3-------------------|----------------------|----------------------|
----------------------|----------------------|--3-------------------|----------------------|


                                                                                            
----------------------|-----------------3----|----------------------|----------------------|
-----------------3----|----------------------|-----------------0----|-----------------3----|
------------0---------|------------0---------|------------0---------|------------0---------|
-------2--------------|-------2--------------|-------2--------------|-------2--------------|
--0-------------------|--3-------------------|--0-------------------|--3-------------------|
----------------------|----------------------|----------------------|----------------------|


                                                                                            
-----------------3----|----------------------|----------------------|-------3--------------|
----------------------|-----------------0----|-----------------0----|--3---------3----0----|
------------0---------|------------0---------|------------0---------|----------------------|
-------2--------------|-------2--------------|-------0--------------|----------------------|
--0-------------------|--3-------------------|----------------------|----------------------|
----------------------|----------------------|--3-------------------|----------------------|


                                                                                            
----------------------|----------------------|----------------------|----------------------|
-----------------0----|-----------------0----|-----------------0----|-----------------0----|
------------0---------|------------0---------|------------0---------|------------0---------|
-------2--------------|-------2--------------|-------2--------------|-------0--------------|
--0-------------------|--3-------------------|--0-------------------|--3-------------------|
----------------------|----------------------|----------------------|----------------------|


                                                                   
----------------------|----------------------|-------------------||
-----------------0----|-----------------0----|-------------------||
------------0---------|------------0---------|-------------------||
-------2--------------|-------2--------------|-------------------||
--0-------------------|--3-------------------|-------------------||
----------------------|----------------------|--3----------------||





Comments


Popular That Dog tabs & chords
Gagged And Tied Bass Tabs
Never Say Never 1 Bass Tabs
Raina 1 Bass Tabs
She Looks At Me 1 Bass Tabs
Silently 1 Bass Tabs
To Keep Me 1 Bass Tabs
He's Kissing Christian Chords
Cowboy Hat Tabs
Minneapolis Tabs
Ms. Wrong Tabs


Song lyrics



↑ Back to top | Tablatures and chords are parodies/interpretations of the original songs. You may use it for private study, scholarship, research or language learning purposes only
© 2014 AZChords.com Contact us | Privacy policy | DMCA | Add/correct tabs | Request tabs | Top 50 tabs