» » »

That Dog, Never Say Never Bass tabs (ver.1)

Artists:  A B C D E F G H I J K L M N O P Q R S T U V W X Y Z # 

Never Say Never Bass tabs (ver.1)

That Dog Tabs
Rating:
0/5 (0 votes)
Never Say Never  lessons Tabs too difficult? Try these video lessons and learn fast
                (1)
that dog - never say never

I am only responsible for submitting this.


Bass
Standard Tuning
                                                       4x                         
G||--------------------------|-------------------------||------------------------|
D||*-------------------------|------------------------*||------------------------|
A||*-------------------------|--3--5----0----0--0--3--*||--3--5----0----0--0--3--|
E||-----1--1--0--1--1--1--0--|-------------------------||------------------------|


                                                                                 
--------------------------|--------------------------|--------------------------|
--------------------------|--------------------------|--------------------------|
--3--3--3--3--3--3--3-----|--3--3--3--3--3--3--3-----|--3--3--3--3--3--3--3-----|
-----------------------3--|-----------------------3--|-----------------------3--|


                                                                               
------------------------|--------------------------|--------------------------|
------------------------|--------------------------|--------------------------|
--3--2----3----3--3-----|--------------------------|--3--3--3--3--3--3--3-----|
---------------------3--|--1--1--1--1--1--1--1--3--|-----------------------3--|


                                                                                 
--------------------------|-------------------------||--------------------------|
--------------------------|--3--2--0--2-------------||*-------------------------|
--------------------------|----------------3--3--5--||*-------------------------|
--1--1--1--1--3--3--3--3--|-------------------------||-----1--1--0--1--1--1--0--|


                         3x                                                    
-------------------------||------------------------|--------------------------|
------------------------*||------------------------|--------------------------|
--3--5----0----0--0--3--*||--3--5----0----0--0--3--|--3--3--3--3--3--3--3-----|
-------------------------||------------------------|-----------------------3--|


                                                                               
--------------------------|--------------------------|------------------------|
--------------------------|--------------------------|------------------------|
--3--3--3--3--3--3--3-----|--3--3--3--3--3--3--3-----|--3--2----3----3--3-----|
-----------------------3--|-----------------------3--|---------------------3--|


                                                                                 
--------------------------|--------------------------|--------------------------|
--------------------------|--------------------------|--------------------------|
--------------------------|--3--3--3--3--3--3--3-----|--------------------------|
--1--1--1--1--1--1--1--3--|-----------------------3--|--1--1--1--1--3--3--3--3--|


                                                                               5x
-------------------------||--------------------------|-------------------------||
--3--2--0--2-------------||*-------------------------|------------------------*||
----------------3--3--5--||*-------------------------|--3--5----0----0--0--3--*||
-------------------------||-----1--1--0--1--1--1--0--|-------------------------||


                                                                               
------------------------|--------------------------|--------------------------|
------------------------|--------------------------|--------------------------|
--3--5----0----0--0--3--|--3--3--3--3--3--3--3-----|--3--3--3--3--3--3--3-----|
------------------------|-----------------------3--|-----------------------3--|


                                                                                 
--------------------------|--------------------------|--------------------------|
--------------------------|--5--5--5--3--3--3--2--2--|--------------------------|
--3--3--3--3--3--3--3-----|--------------------------|-----------------------3--|
-----------------------3--|--------------------------|--1--1--1--1--1--1--1-----|


                                                                                 
--------------------------|--------------------------|--------------------------|
--3--3--3--2--2--2--------|--------------------------|--3--3--3--2--2--2--0--0--|
--------------------3--3--|-----------------------3--|--------------------------|
--------------------------|--1--1--1--1--1--1--1-----|--------------------------|


                                                                                 
--------------------------|--------------------------|--5--5--5--5--5--5--5-----|
-----------------------5--|-----------------------5--|-----------------------5--|
--3--3--3--3--3--3--3-----|--3--3--3--3--3--3--3-----|--------------------------|
--------------------------|--------------------------|--------------------------|


                                                                               
--5--7----9----7--5-----|--------------------------|--------------------------|
---------------------5--|--------------------------|--3--3--3--2--2--2--------|
------------------------|-----------------------3--|--------------------3--3--|
------------------------|--1--1--1--1--1--1--1-----|--------------------------|


                                                                              
--------------------------|------------------------|-------------------------|
--------------------------|--3--2--0--2------------|-------------------------|
--------------------------|----------------3----5--|-------------------------|
--1--1--1--1--1--1--1--1--|------------------------|----1--1--1--1--1--1--1--|


                                                                              
-----------------------||--------------------------|------------------------||
-----------------------||*-------------------------|-----------------------*||
----5----0----0--0--3--||*-------------------------|----5----0----0--0--3--*||
-----------------------||-----1--1--1--1--1--1--1--|------------------------||


                                                                                
-------------------------|------------------------||---------------------------|
-------------------------|------------------------||*--------------------------|
-------------------------|--3--5----0----0--0--3--||*--------------3--3--2--2--|
----1--1--1--1--1--1--1--|------------------------||---1--1--1--1--------------|


                                                                                   
--------------------------|--------------------------|---------------------------||
--------------------------|--------------------------|--------------------------*||
--3--5--5--0--0--0--0--3--|--------------3--3--2--2--|--3--5--5--0--0--0--0--3--*||
--------------------------|--1--1--1--1--------------|---------------------------||


                                                                                  
--------------------------|--------------------------||--------------------------|
--------------------------|--------------------------||*-------------------------|
--------------3--3--2--2--|--3--5--5--0--0--0--0--3--||*-------------------------|
--1--1--1--1--------------|--------------------------||-----1--1--0--1--1--1--0--|


                         3x                                                       
-------------------------||---------------------------|--------------------------|
------------------------*||*--------------------------|--------------------------|
--3--5----0----0--0--3--*||*--------------3--3--2--2--|--3--5--5--0--0--0--0--3--|
-------------------------||---1--1--1--1--------------|--------------------------|


                                                                                   
--------------------------|---------------------------||--------------------------|
--------------------------|--------------------------*||--------------------------|
--------------3--3--2--2--|--3--5--5--0--0--0--0--3--*||--------------3--3--2--2--|
--1--1--1--1--------------|---------------------------||--1--1--1--1--------------|


                                                                                
--------------------------||--------------------------|------------------------|
--------------------------||*-------------------------|------------------------|
--3--5--5--0--0--0--0--3--||*-------------------------|--3--5----0----0--0--3--|
--------------------------||-----1--1--0--1--1--1--0--|------------------------|


                                                                               
-------------------------|-------------------------||-------------------------|
-------------------------|------------------------*||-------------------------|
-------------------------|--3--5----0----0--0--3--*||-------------------------|
----1--1--0--1--1--1--0--|-------------------------||----1--1--0--1--1--1--0--|


                                                                              
------------------------||--------------------------|------------------------|
------------------------||*-------------------------|------------------------|
--3--5----0----0--0--3--||*-------------------------|--3--5----0----0--0--3--|
------------------------||-----1--1--0--1--1--1--0--|------------------------|


                                                                               
-------------------------|-------------------------||-------------------------|
-------------------------|------------------------*||-------------------------|
-------------------------|--3--5----0----0--0--3--*||-------------------------|
----1--1--0--1--1--1--0--|-------------------------||----1--1--0--1--1--1--0--|


                                                                              
------------------------||--------------------------|------------------------|
------------------------||*-------------------------|------------------------|
--3--5----0----0--0--3--||*-------------------------|--3--5----0----0--0--3--|
------------------------||-----1--1--0--1--1--1--0--|------------------------|


                                                                               
-------------------------|-------------------------||-------------------------|
-------------------------|------------------------*||-------------------------|
-------------------------|--3--5----0----0--0--3--*||-------------------------|
----1--1--0--1--1--1--0--|-------------------------||----1--1--0--1--1--1--0--|


                          
------------------------||
------------------------||
--3--5----0----0--0--3--||
------------------------||
            

comments powered by Disqus
↑ Back to top | That Dog Bass for Never Say Never. Lyrics for acoustic guitar and electric guitar. Tablatures and chords are parodies/interpretations of the original songs. You may use it for private study, scholarship, research or language learning purposes only