>
 >
Ms. Wrong

Ms. Wrong Guitar Tabs

That Dog - Ms. Wrong chords, tabs, tablatures, lyrics

Guitar lessons | Add/correct | Request | Top 50 tabs Artists:  A B C D E F G H I J K L M N O P Q R S T U V W X Y Z 0-9

Ms. Wrong Guitar Tabs – That Dog

CD, Sheet music, Poster

Do you like Ms. Wrong? Share with your friends now
ChordsTabs
that dog - ms. wrong

I am only responsible for submitting this.


Guitar 1
Standard Tuning

G||--------------------------|--------------------------|
D||--------------------------|--------------------------|
G||--------------------------|--------------------------|
D||--------------------------|--------------------------|
A||--------------------------|--------------------------|
E||--------------------------|--------------------------|


                                             
|---0--0--0--0--0---0---0---0---0--0--0--0--|
|---0--0--0--0--0---0---0---0---0--0--0--0--|
|*--4--4--4--4--10--10--10--10--8--8--8--8--|
|*--5--5--5--5--11--11--11--11--9--9--9--9--|
|---5--5--5--5--11--11--11--11--9--9--9--9--|
|---3--3--3--3--9---9---9---9---7--7--7--7--|


                                                                                             
--0--0--0--0--0---0---0---0---0---0---0---0----||---0--0--0--0--0---0---0---0---0--0--0--0--|
--0--0--0--0--0---0---0---0---0---0---0---0----||---0--0--0--0--0---0---0---0---0--0--0--0--|
--4--4--4--4--9---9---9---9---9---9---9---9---*||*--4--4--4--4--10--10--10--10--8--8--8--8--|
--5--5--5--5--10--10--10--10--10--10--10--10--*||*--5--5--5--5--11--11--11--11--9--9--9--9--|
--5--5--5--5--10--10--10--10--10--10--10--10---||---5--5--5--5--11--11--11--11--9--9--9--9--|
--3--3--3--3--8---8---8---8---8---8---8---8----||---3--3--3--3--9---9---9---9---7--7--7--7--|


                                                                                          
--0--0--0--0--0---0---0---0---0---0---0---0----||--0----------------|--0-----------------|
--0--0--0--0--0---0---0---0---0---0---0---0----||--0----------------|--0-----------------|
--4--4--4--4--9---9---9---9---9---9---9---9---*||--4----------------|--9-----------------|
--5--5--5--5--10--10--10--10--10--10--10--10--*||--5----------------|--10----------------|
--5--5--5--5--10--10--10--10--10--10--10--10---||--5----------------|--10----------------|
--3--3--3--3--8---8---8---8---8---8---8---8----||--3----------------|--8-----------------|


                                                                    
--0-----------------|--0----------------|-----------0--0--0--0--0--|
--0-----------------|--0----------------|-----------0--0--0--0--0--|
--11----------------|--0----------------|--6--6--6--6--6--6--6--6--|
--12----------------|--2----------------|--7--7--7--7--7--7--7--7--|
--12----------------|--2----------------|--7--7--7--7--7--7--7--7--|
--10----------------|--0----------------|--5--5--5--5--5--5--5--5--|


                                                                                          
--0---0---0---0---0---0---0---0---|--0---0---0---0--0--0--0--0--||---0---------0---------|
--0---0---0---0---0---0---0---0---|--0---0---0---0--0--0--0--0--||---0---------0---------|
--7---7---7---7---11--11--11--11--|--0---0---0---6--6--6--6--6--||*--9---------11--------|
--10--10--10--10--12--12--12--12--|--14--14--14--7--7--7--7--7--||*--10--------12--------|
--10--10--10--10--12--12--12--12--|--14--14--14--7--7--7--7--7--||---10--------12--------|
--8---8---8---8---10--10--10--10--|--12--12--12--5--5--5--5--5--||---8---------10--------|


                                                                                    
--0-----------------||--0---0---0---0---0---0---0---0---|--0--0--0--0--0--0--0--0--|
--0-----------------||--0---0---0---0---0---0---0---0---|--0--0--0--0--0--0--0--0--|
--6----------------*||--9---9---9---9---11--11--11--11--|--6--6--6--6--6--6--6--6--|
--7----------------*||--10--10--10--10--12--12--12--12--|--7--7--7--7--7--7--7--7--|
--7-----------------||--10--10--10--10--12--12--12--12--|--7--7--7--7--7--7--7--7--|
--5-----------------||--8---8---8---8---10--10--10--10--|--5--5--5--5--5--5--5--5--|


                                                                                          
--0--0--0--0--0---0---0---0---0--0--0--0--|--0--0--0--0--0---0---0---0---0---0---0---0---|
--0--0--0--0--0---0---0---0---0--0--0--0--|--0--0--0--0--0---0---0---0---0---0---0---0---|
--4--4--4--4--10--10--10--10--8--8--8--8--|--4--4--4--4--9---9---9---9---9---9---9---9---|
--5--5--5--5--11--11--11--11--9--9--9--9--|--5--5--5--5--10--10--10--10--10--10--10--10--|
--5--5--5--5--11--11--11--11--9--9--9--9--|--5--5--5--5--10--10--10--10--10--10--10--10--|
--3--3--3--3--9---9---9---9---7--7--7--7--|--3--3--3--3--8---8---8---8---8---8---8---8---|


                                                                                          
--0--0--0--0--0---0---0---0---0--0--0--0--|--0--0--0--0--0---0---0---0---0---0---0---0---|
--0--0--0--0--0---0---0---0---0--0--0--0--|--0--0--0--0--0---0---0---0---0---0---0---0---|
--4--4--4--4--10--10--10--10--8--8--8--8--|--4--4--4--4--9---9---9---9---9---9---9---9---|
--5--5--5--5--11--11--11--11--9--9--9--9--|--5--5--5--5--10--10--10--10--10--10--10--10--|
--5--5--5--5--11--11--11--11--9--9--9--9--|--5--5--5--5--10--10--10--10--10--10--10--10--|
--3--3--3--3--9---9---9---9---7--7--7--7--|--3--3--3--3--8---8---8---8---8---8---8---8---|


                                                                                 
--------------------------|--------------------------|--------------------------|
--------------------------|--------------------------|--------------------------|
--------------------------|--------------------------|--------------------------|
--------------------------|--------------------------|--------------------------|
--------------------------|--------------------------|--------------------------|
--------------------------|--------------------------|--------------------------|


                                                                        
--------------------------||---0--0--0--0--0---0---0---0---0--0--0--0--|
--------------------------||---0--0--0--0--0---0---0---0---0--0--0--0--|
--------------------------||*--4--4--4--4--10--10--10--10--8--8--8--8--|
--------------------------||*--5--5--5--5--11--11--11--11--9--9--9--9--|
--------------------------||---5--5--5--5--11--11--11--11--9--9--9--9--|
--------------------------||---3--3--3--3--9---9---9---9---7--7--7--7--|


                                                                                          
--0--0--0--0--0---0---0---0---0---0---0---0----||--0----------------|--0-----------------|
--0--0--0--0--0---0---0---0---0---0---0---0----||--0----------------|--0-----------------|
--4--4--4--4--9---9---9---9---9---9---9---9---*||--4----------------|--9-----------------|
--5--5--5--5--10--10--10--10--10--10--10--10--*||--5----------------|--10----------------|
--5--5--5--5--10--10--10--10--10--10--10--10---||--5----------------|--10----------------|
--3--3--3--3--8---8---8---8---8---8---8---8----||--3----------------|--8-----------------|


                                                                    
--0-----------------|--0----------------|-----------0--0--0--0--0--|
--0-----------------|--0----------------|-----------0--0--0--0--0--|
--11----------------|--0----------------|--6--6--6--6--6--6--6--6--|
--12----------------|--2----------------|--7--7--7--7--7--7--7--7--|
--12----------------|--2----------------|--7--7--7--7--7--7--7--7--|
--10----------------|--0----------------|--5--5--5--5--5--5--5--5--|


                                                                                          
--0---0---0---0---0---0---0---0---|--0---0---0---0--0--0--0--0--||---0---------0---------|
--0---0---0---0---0---0---0---0---|--0---0---0---0--0--0--0--0--||---0---------0---------|
--7---7---7---7---11--11--11--11--|--0---0---0---6--6--6--6--6--||*--9---------11--------|
--10--10--10--10--12--12--12--12--|--14--14--14--7--7--7--7--7--||*--10--------12--------|
--10--10--10--10--12--12--12--12--|--14--14--14--7--7--7--7--7--||---10--------12--------|
--8---8---8---8---10--10--10--10--|--12--12--12--5--5--5--5--5--||---8---------10--------|


                                                                                    
--0-----------------||--0---0---0---0---0---0---0---0---|--0--0--0--0--0--0--0--0--|
--0-----------------||--0---0---0---0---0---0---0---0---|--0--0--0--0--0--0--0--0--|
--6----------------*||--9---9---9---9---11--11--11--11--|--6--6--6--6--6--6--6--6--|
--7----------------*||--10--10--10--10--12--12--12--12--|--7--7--7--7--7--7--7--7--|
--7-----------------||--10--10--10--10--12--12--12--12--|--7--7--7--7--7--7--7--7--|
--5-----------------||--8---8---8---8---10--10--10--10--|--5--5--5--5--5--5--5--5--|


                                                                                          
--0--0--0--0--0---0---0---0---0--0--0--0--|--0--0--0--0--0---0---0---0---0---0---0---0---|
--0--0--0--0--0---0---0---0---0--0--0--0--|--0--0--0--0--0---0---0---0---0---0---0---0---|
--4--4--4--4--10--10--10--10--8--8--8--8--|--4--4--4--4--9---9---9---9---9---9---9---9---|
--5--5--5--5--11--11--11--11--9--9--9--9--|--5--5--5--5--10--10--10--10--10--10--10--10--|
--5--5--5--5--11--11--11--11--9--9--9--9--|--5--5--5--5--10--10--10--10--10--10--10--10--|
--3--3--3--3--9---9---9---9---7--7--7--7--|--3--3--3--3--8---8---8---8---8---8---8---8---|


                                                                                          
--0--0--0--0--0---0---0---0---0--0--0--0--|--0--0--0--0--0---0---0---0---0---0---0---0---|
--0--0--0--0--0---0---0---0---0--0--0--0--|--0--0--0--0--0---0---0---0---0---0---0---0---|
--4--4--4--4--10--10--10--10--8--8--8--8--|--4--4--4--4--9---9---9---9---9---9---9---9---|
--5--5--5--5--11--11--11--11--9--9--9--9--|--5--5--5--5--10--10--10--10--10--10--10--10--|
--5--5--5--5--11--11--11--11--9--9--9--9--|--5--5--5--5--10--10--10--10--10--10--10--10--|
--3--3--3--3--9---9---9---9---7--7--7--7--|--3--3--3--3--8---8---8---8---8---8---8---8---|


                                             
|---0--0--0--0--0---0---0---0---0--0--0--0--|
|---0--0--0--0--0---0---0---0---0--0--0--0--|
|*--4--4--4--4--10--10--10--10--8--8--8--8--|
|*--5--5--5--5--11--11--11--11--9--9--9--9--|
|---5--5--5--5--11--11--11--11--9--9--9--9--|
|---3--3--3--3--9---9---9---9---7--7--7--7--|


                                                                                        
--0--0--0--0--0---0---0---0---0---0---0---0----||--0----------------|------------------|
--0--0--0--0--0---0---0---0---0---0---0---0----||--0----------------|------------------|
--4--4--4--4--9---9---9---9---9---9---9---9---*||--4----------------|------------------|
--5--5--5--5--10--10--10--10--10--10--10--10--*||--5----------------|------------------|
--5--5--5--5--10--10--10--10--10--10--10--10---||--5----------------|------------------|
--3--3--3--3--8---8---8---8---8---8---8---8----||--3----------------|------------------|


                            
--------------------------||
--------------------------||
--------------------------||
--------------------------||
--------------------------||
--------------------------||

Guitar 2
Standard Tuning

G||--------------------------|--------------------------|
D||--------------------------|--------------------------|
G||--------------------------|--------------------------|
D||--------------------------|--------------------------|
A||--------------------------|--------------------------|
E||--------------------------|--------------------------|


                                             
|---0--0--0--0--0---0---0---0---0--0--0--0--|
|---0--0--0--0--0---0---0---0---0--0--0--0--|
|*--4--4--4--4--10--10--10--10--8--8--8--8--|
|*--5--5--5--5--11--11--11--11--9--9--9--9--|
|---5--5--5--5--11--11--11--11--9--9--9--9--|
|---3--3--3--3--9---9---9---9---7--7--7--7--|


                                                                                             
--0--0--0--0--0---0---0---0---0---0---0---0----||---0--0--0--0--0---0---0---0---0--0--0--0--|
--0--0--0--0--0---0---0---0---0---0---0---0----||---0--0--0--0--0---0---0---0---0--0--0--0--|
--4--4--4--4--9---9---9---9---9---9---9---9---*||*--4--4--4--4--10--10--10--10--8--8--8--8--|
--5--5--5--5--10--10--10--10--10--10--10--10--*||*--5--5--5--5--11--11--11--11--9--9--9--9--|
--5--5--5--5--10--10--10--10--10--10--10--10---||---5--5--5--5--11--11--11--11--9--9--9--9--|
--3--3--3--3--8---8---8---8---8---8---8---8----||---3--3--3--3--9---9---9---9---7--7--7--7--|


                                                                     
--0--0--0--0--0---0---0---0---0---0---0---0----||--0----------------|
--0--0--0--0--0---0---0---0---0---0---0---0----||--0----------------|
--4--4--4--4--9---9---9---9---9---9---9---9---*||--4----------------|
--5--5--5--5--10--10--10--10--10--10--10--10--*||--5----------------|
--5--5--5--5--10--10--10--10--10--10--10--10---||--5----------------|
--3--3--3--3--8---8---8---8---8---8---8---8----||--3----------------|


                                                                 
----------------0-------------|--------------0------------------|
----------------0-------------|--------------0------------------|
-------------9-----9----------|-----------------11--------------|
---------10-----------10------|----------12---------12----------|
-----10-------------------10--|------12-----------------12------|
--8---------------------------|--10-------------------------10--|


                                                           
--------------0----------------|--0--0--0--0--0--0--0--0--|
--------------0----------------|--0--0--0--0--0--0--0--0--|
-------------------------------|--6--6--6--6--6--6--6--6--|
----------14-------14----------|--7--7--7--7--7--7--7--7--|
------14---------------14------|--7--7--7--7--7--7--7--7--|
--12-----------------------12--|--5--5--5--5--5--5--5--5--|


                                                                                          
--0---0---0---0---0---0---0---0---|--0---0---0---0--0--0--0--0--||---0---------0---------|
--0---0---0---0---0---0---0---0---|--0---0---0---0--0--0--0--0--||---0---------0---------|
--7---7---7---7---11--11--11--11--|--0---0---0---6--6--6--6--6--||*--9---------11--------|
--10--10--10--10--12--12--12--12--|--14--14--14--7--7--7--7--7--||*--10--------12--------|
--10--10--10--10--12--12--12--12--|--14--14--14--7--7--7--7--7--||---10--------12--------|
--8---8---8---8---10--10--10--10--|--12--12--12--5--5--5--5--5--||---8---------10--------|


                                                                                    
--0-----------------||--0---0---0---0---0---0---0---0---|--0--0--0--0--0--0--0--0--|
--0-----------------||--0---0---0---0---0---0---0---0---|--0--0--0--0--0--0--0--0--|
--6----------------*||--9---9---9---9---11--11--11--11--|--6--6--6--6--6--6--6--6--|
--7----------------*||--10--10--10--10--12--12--12--12--|--7--7--7--7--7--7--7--7--|
--7-----------------||--10--10--10--10--12--12--12--12--|--7--7--7--7--7--7--7--7--|
--5-----------------||--8---8---8---8---10--10--10--10--|--5--5--5--5--5--5--5--5--|


                                                                                          
--0--0--0--0--0---0---0---0---0--0--0--0--|--0--0--0--0--0---0---0---0---0---0---0---0---|
--0--0--0--0--0---0---0---0---0--0--0--0--|--0--0--0--0--0---0---0---0---0---0---0---0---|
--4--4--4--4--10--10--10--10--8--8--8--8--|--4--4--4--4--9---9---9---9---9---9---9---9---|
--5--5--5--5--11--11--11--11--9--9--9--9--|--5--5--5--5--10--10--10--10--10--10--10--10--|
--5--5--5--5--11--11--11--11--9--9--9--9--|--5--5--5--5--10--10--10--10--10--10--10--10--|
--3--3--3--3--9---9---9---9---7--7--7--7--|--3--3--3--3--8---8---8---8---8---8---8---8---|


                                                                                          
--0--0--0--0--0---0---0---0---0--0--0--0--|--0--0--0--0--0---0---0---0---0---0---0---0---|
--0--0--0--0--0---0---0---0---0--0--0--0--|--0--0--0--0--0---0---0---0---0---0---0---0---|
--4--4--4--4--10--10--10--10--8--8--8--8--|--4--4--4--4--9---9---9---9---9---9---9---9---|
--5--5--5--5--11--11--11--11--9--9--9--9--|--5--5--5--5--10--10--10--10--10--10--10--10--|
--5--5--5--5--11--11--11--11--9--9--9--9--|--5--5--5--5--10--10--10--10--10--10--10--10--|
--3--3--3--3--9---9---9---9---7--7--7--7--|--3--3--3--3--8---8---8---8---8---8---8---8---|


                                                                             
--0----------------|------------------|------------------|------------------|
--0----------------|------------------|------------------|------------------|
--4----------------|------------------|------------------|------------------|
--5----------------|------------------|------------------|------------------|
--5----------------|------------------|------------------|------------------|
--3----------------|------------------|------------------|------------------|


                                             
|---0--0--0--0--0---0---0---0---0--0--0--0--|
|---0--0--0--0--0---0---0---0---0--0--0--0--|
|*--4--4--4--4--10--10--10--10--8--8--8--8--|
|*--5--5--5--5--11--11--11--11--9--9--9--9--|
|---5--5--5--5--11--11--11--11--9--9--9--9--|
|---3--3--3--3--9---9---9---9---7--7--7--7--|


                                                                     
--0--0--0--0--0---0---0---0---0---0---0---0----||--0----------------|
--0--0--0--0--0---0---0---0---0---0---0---0----||--0----------------|
--4--4--4--4--9---9---9---9---9---9---9---9---*||--4----------------|
--5--5--5--5--10--10--10--10--10--10--10--10--*||--5----------------|
--5--5--5--5--10--10--10--10--10--10--10--10---||--5----------------|
--3--3--3--3--8---8---8---8---8---8---8---8----||--3----------------|


                                                                 
----------------0-------------|--------------0------------------|
----------------0-------------|--------------0------------------|
-------------9-----9----------|-----------------11--------------|
---------10-----------10------|----------12---------12----------|
-----10-------------------10--|------12-----------------12------|
--8---------------------------|--10-------------------------10--|


                                                           
--------------0----------------|--0--0--0--0--0--0--0--0--|
--------------0----------------|--0--0--0--0--0--0--0--0--|
-------------------------------|--6--6--6--6--6--6--6--6--|
----------14-------14----------|--7--7--7--7--7--7--7--7--|
------14---------------14------|--7--7--7--7--7--7--7--7--|
--12-----------------------12--|--5--5--5--5--5--5--5--5--|


                                                                                          
--0---0---0---0---0---0---0---0---|--0---0---0---0--0--0--0--0--||---0---------0---------|
--0---0---0---0---0---0---0---0---|--0---0---0---0--0--0--0--0--||---0---------0---------|
--7---7---7---7---11--11--11--11--|--0---0---0---6--6--6--6--6--||*--9---------11--------|
--10--10--10--10--12--12--12--12--|--14--14--14--7--7--7--7--7--||*--10--------12--------|
--10--10--10--10--12--12--12--12--|--14--14--14--7--7--7--7--7--||---10--------12--------|
--8---8---8---8---10--10--10--10--|--12--12--12--5--5--5--5--5--||---8---------10--------|


                                                                                    
--0-----------------||--0---0---0---0---0---0---0---0---|--0--0--0--0--0--0--0--0--|
--0-----------------||--0---0---0---0---0---0---0---0---|--0--0--0--0--0--0--0--0--|
--6----------------*||--9---9---9---9---11--11--11--11--|--6--6--6--6--6--6--6--6--|
--7----------------*||--10--10--10--10--12--12--12--12--|--7--7--7--7--7--7--7--7--|
--7-----------------||--10--10--10--10--12--12--12--12--|--7--7--7--7--7--7--7--7--|
--5-----------------||--8---8---8---8---10--10--10--10--|--5--5--5--5--5--5--5--5--|


                                                                                          
--0--0--0--0--0---0---0---0---0--0--0--0--|--0--0--0--0--0---0---0---0---0---0---0---0---|
--0--0--0--0--0---0---0---0---0--0--0--0--|--0--0--0--0--0---0---0---0---0---0---0---0---|
--4--4--4--4--10--10--10--10--8--8--8--8--|--4--4--4--4--9---9---9---9---9---9---9---9---|
--5--5--5--5--11--11--11--11--9--9--9--9--|--5--5--5--5--10--10--10--10--10--10--10--10--|
--5--5--5--5--11--11--11--11--9--9--9--9--|--5--5--5--5--10--10--10--10--10--10--10--10--|
--3--3--3--3--9---9---9---9---7--7--7--7--|--3--3--3--3--8---8---8---8---8---8---8---8---|


                                                                                          
--0--0--0--0--0---0---0---0---0--0--0--0--|--0--0--0--0--0---0---0---0---0---0---0---0---|
--0--0--0--0--0---0---0---0---0--0--0--0--|--0--0--0--0--0---0---0---0---0---0---0---0---|
--4--4--4--4--10--10--10--10--8--8--8--8--|--4--4--4--4--9---9---9---9---9---9---9---9---|
--5--5--5--5--11--11--11--11--9--9--9--9--|--5--5--5--5--10--10--10--10--10--10--10--10--|
--5--5--5--5--11--11--11--11--9--9--9--9--|--5--5--5--5--10--10--10--10--10--10--10--10--|
--3--3--3--3--9---9---9---9---7--7--7--7--|--3--3--3--3--8---8---8---8---8---8---8---8---|


                                             
|---0--0--0--0--0---0---0---0---0--0--0--0--|
|---0--0--0--0--0---0---0---0---0--0--0--0--|
|*--4--4--4--4--10--10--10--10--8--8--8--8--|
|*--5--5--5--5--11--11--11--11--9--9--9--9--|
|---5--5--5--5--11--11--11--11--9--9--9--9--|
|---3--3--3--3--9---9---9---9---7--7--7--7--|


                                                                                        
--0--0--0--0--0---0---0---0---0---0---0---0----||--0----------------|------------------|
--0--0--0--0--0---0---0---0---0---0---0---0----||--0----------------|------------------|
--4--4--4--4--9---9---9---9---9---9---9---9---*||--4----------------|------------------|
--5--5--5--5--10--10--10--10--10--10--10--10--*||--5----------------|------------------|
--5--5--5--5--10--10--10--10--10--10--10--10---||--5----------------|------------------|
--3--3--3--3--8---8---8---8---8---8---8---8----||--3----------------|------------------|





Comments


Popular That Dog tabs & chords
Everytime I Try 1 Bass Tabs
Gagged And Tied 1 Bass Tabs
I'm Gonna See You Bass Tabs
I'm Gonna See You 1 Bass Tabs
Long Island 1 Bass Tabs
Minneapolis Bass Tabs
He Rocks Tabs
He's Kissing Christian Tabs
Holidays Tabs
Never Say Never Tabs


Song lyrics



↑ Back to top | Tablatures and chords are parodies/interpretations of the original songs. You may use it for private study, scholarship, research or language learning purposes only
© 2014 AZChords.com Contact us | Privacy policy | DMCA | Add/correct tabs | Request tabs | Top 50 tabs