>
 >
Minneapolis

Minneapolis Guitar Tabs

That Dog - Minneapolis chords, tabs, tablatures, lyrics

Guitar lessons | Add/correct | Request | Top 50 tabs Artists:  A B C D E F G H I J K L M N O P Q R S T U V W X Y Z 0-9

Minneapolis Guitar Tabs – That Dog

CD, Sheet music, Poster

Do you like Minneapolis? Share with your friends now
Bass TabsBass Tabs v2Tabs
that dog - minneapolis

I am only responsible for submitting this.


Guitar 1
Standard Tuning

Note: I got a little lazy on this one, and I only tabbed out the important parts.
But hey, you should know the song.


E||----------------------------||-------------------------|-------------------------|
B||----------------------------||-------------------------|-------------------------|
G||*--------------------------*||-------------------------|-------------------------|
D||*--------0-----------0-----*||-------------------------|-------------------------|
A||----------------------------||-------------------------|-------------------------|
E||---3--3-----3--3--3-----3---||--0--0--0--0--0--2----3--|----3--3--3--3--3--3--3--|


                                                                              
-------------------------|-------------------------|-------------------------|
-------------------------|-------------------------|-------------------------|
-------------------------|-------------------------|-------------------------|
-------------------------|-------------------------|-------------------------|
-------------------------|-------------------------|-------------------------|
--5--5--5--5--5--7----8--|----8--8--8--8--8--8--8--|--0--0--0--0--0--2----3--|


                                                                                    
-------------------------||----------------------------||--------------------------|
-------------------------||----------------------------||--------------------------|
-------------------------||*--------------------------*||--------------------------|
-------------------------||*--------0-----------0-----*||--5--5--5--5--5--5--5--5--|
-------------------------||----------------------------||--3--3--3--3--3--3--3--3--|
----3--3--3--3--3--3--3--||---3--3-----3--3--3-----3---||--------------------------|


                                                                                 
--------------------------|--------------------------|--------------------------|
--------------------------|--------------------------|--------------------------|
--------------------------|--------------------------|--------------------------|
--5--5--5--5--5--5--5--5--|--------------------------|--------------------------|
--3--3--3--3--3--3--3--3--|--5--5--5--5--5--5--5--5--|--5--5--5--5--5--5--5--5--|
--------------------------|--3--3--3--3--3--3--3--3--|--3--3--3--3--3--3--3--3--|


                                                                                
--------------------------|--------------------------|-------------------------|
--------------------------|--------------------------|-------------------------|
--------------------------|--------------------------|-------------------------|
--7--7--7--7--7--7--7--7--|--7--7--7--7--7--7--7--7--|--5--5--5--5--5--7-------|
--5--5--5--5--5--5--5--5--|--5--5--5--5--5--5--5--5--|--3--3--3--3--3--5----5--|
--------------------------|--------------------------|----------------------3--|


                                                                              
-------------------------|-------------------------|-------------------------|
-------------------------|-------------------------|-------------------------|
-------------------------|-------------------------|-------------------------|
-------------------------|--5--5--5--5--5--7-------|-------------------------|
----5--5--5--5--5--5--5--|--3--3--3--3--3--5----5--|----5--5--5--5--5--5--5--|
----3--3--3--3--3--3--3--|----------------------3--|----3--3--3--3--3--3--3--|


                                                                              
-------------------------|-------------------------|-------------------------|
-------------------------|-------------------------|-------------------------|
-------------------------|-------------------------|-------------------------|
--5--5--5--5--5--7-------|-------------------------|--5--5--5--5--5--7-------|
--3--3--3--3--3--5----5--|----5--5--5--5--5--5--5--|--3--3--3--3--3--5----5--|
----------------------3--|----3--3--3--3--3--3--3--|----------------------3--|


                                                                     
------------------|------------------------|------------------------|
------------------|------------------------|------------------------|
------------------|------------------------|------------------------|
------------------|------------------------|------------------------|
------------------|--5--5----5--5--5----5--|--5--5----5--5--5----5--|
------------------|--3--3----3--3--3----3--|--3--3----3--3--3----3--|


                                                                           
------------------------|------------------------|------------------------|
------------------------|------------------------|------------------------|
------------------------|------------------------|------------------------|
------------------------|------------------------|------------------------|
--5--5----5--5--5----5--|--5--5----5--5--5----5--|--5--5----5--5--5----5--|
--3--3----3--3--3----3--|--3--3----3--3--3----3--|--3--3----3--3--3----3--|


                                                                            
------------------------|------------------------|-------------------------|
------------------------|------------------------|-------------------------|
------------------------|------------------------|-------------------------|
------------------------|------------------------|-------------------------|
--5--5----5--5--5----5--|--5--5----5--5--5----5--|--5--5----5--5--4--4--2--|
--3--3----3--3--3----3--|--3--3----3--3--3----3--|--3--3----3--3--2--2--0--|


                                                                              
-------------------------|-------------------------|-------------------------|
-------------------------|-------------------------|-------------------------|
-------------------------|-------------------------|-------------------------|
-------------------------|-------------------------|-------------------------|
-------------------------|-------------------------|-------------------------|
--0--0--0--0--0--2----3--|----3--3--3--3--3--3--3--|--5--5--5--5--5--7----8--|


                                                                              
-------------------------|-------------------------|-------------------------|
-------------------------|-------------------------|-------------------------|
-------------------------|-------------------------|-------------------------|
-------------------------|-------------------------|-------------------------|
-------------------------|-------------------------|-------------------------|
----8--8--8--8--8--8--8--|--0--0--0--0--0--2----3--|----3--3--3--3--3--3--3--|


                                                       
--------3-----------3-----|--------3-----------3-----||
--------3-----------3-----|--------3-----------3-----||
--------0-----------0-----|--------0-----------0-----||
--0--0--0--0--0--0--0--0--|--0--0--0--0--0--0--0--0--||
--2--2--2--2--2--2--2--2--|--2--2--2--2--2--2--2--2--||
--3--3--3--3--3--3--3--3--|--3--3--3--3--3--3--3--3--||

Guitar 2
Standard Tuning

E||--------------------||--3-----3-----3-----3-----|--3-----3-----3-----3-----|
B||--------------------||-----3-----3-----3-----3--|-----3-----3-----3-----3--|
G||*------------------*||--------------------------|--------------------------|
D||*------------------*||--------------------------|--------------------------|
A||--------------------||--------------------------|--------------------------|
E||--------------------||--------------------------|--------------------------|


                                                                                 
--3-----3-----3-----3-----|--3-----3-----3-----3-----|--3-----3-----3-----3-----|
-----3-----3-----3-----3--|-----3-----3-----3-----3--|-----3-----3-----3-----3--|
--------------------------|--------------------------|--------------------------|
--------------------------|--------------------------|--------------------------|
--------------------------|--------------------------|--------------------------|
--------------------------|--------------------------|--------------------------|


                                                                                     
--3-----3-----3-----3-----||---3-----3-----3-----3------||--5--5--5--5--5--5--5--3--|
-----3-----3-----3-----3--||------3-----3-----3-----3---||--5--5--5--5--5--5--5--3--|
--------------------------||*--------------------------*||--------------------------|
--------------------------||*--------------------------*||--------------------------|
--------------------------||----------------------------||--------------------------|
--------------------------||----------------------------||--------------------------|


                                                                               
----3--3--3--3--3--3--3--|--5--5--5--5--5--5--5--3--|----3--3--3--3--3--3--3--|
----3--3--3--3--3--3--3--|--5--5--5--5--5--5--5--3--|----3--3--3--3--3--3--3--|
-------------------------|--------------------------|-------------------------|
-------------------------|--------------------------|-------------------------|
-------------------------|--------------------------|-------------------------|
-------------------------|--------------------------|-------------------------|


                                                                              
--2--2--2--2--2--0----5--|----5--5--5--5--5--5--5--|--2--2--2--2--2--0----3--|
--3--3--3--3--3--3----3--|----3--3--3--3--3--3--3--|--1--1--1--1--1--3----3--|
-------------------------|-------------------------|-------------------------|
-------------------------|-------------------------|-------------------------|
-------------------------|-------------------------|-------------------------|
-------------------------|-------------------------|-------------------------|


                                                                              
----3--3--3--3--3--3--3--|--2--2--2--2--2--0----3--|----3--3--3--3--3--3--3--|
----3--3--3--3--3--3--3--|--1--1--1--1--1--3----3--|----3--3--3--3--3--3--3--|
-------------------------|-------------------------|-------------------------|
-------------------------|-------------------------|-------------------------|
-------------------------|-------------------------|-------------------------|
-------------------------|-------------------------|-------------------------|


                                                                              
--2--2--2--2--2--0----3--|----3--3--3--3--3--3--3--|--2--2--2--2--2--0----3--|
--1--1--1--1--1--3----3--|----3--3--3--3--3--3--3--|--1--1--1--1--1--3----3--|
-------------------------|-------------------------|-------------------------|
-------------------------|-------------------------|-------------------------|
-------------------------|-------------------------|-------------------------|
-------------------------|-------------------------|-------------------------|


                                                                                
----3-----3-----3-----3--|--7-----7-----7-----7-----|--7-----7-----7-----7-----|
-------3-----3-----3-----|-----8-----8-----8-----8--|-----8-----8-----8-----8--|
-------------------------|--------------------------|--------------------------|
-------------------------|--------------------------|--------------------------|
-------------------------|--------------------------|--------------------------|
-------------------------|--------------------------|--------------------------|


                                                                                 
--7-----7-----7-----7-----|--7-----7-----7-----7-----|--7-----7-----7-----7-----|
-----8-----8-----8-----8--|-----8-----8-----8-----8--|-----8-----8-----8-----8--|
--------------------------|--------------------------|--------------------------|
--------------------------|--------------------------|--------------------------|
--------------------------|--------------------------|--------------------------|
--------------------------|--------------------------|--------------------------|


                                                                                 
--7-----7-----7-----7-----|--7-----7-----7-----7-----|--7-----7-----7-----7-----|
-----8-----8-----8-----8--|-----8-----8-----8-----8--|-----8-----8-----8-----8--|
--------------------------|--------------------------|--------------------------|
--------------------------|--------------------------|--------------------------|
--------------------------|--------------------------|--------------------------|
--------------------------|--------------------------|--------------------------|


                                                                            
------------------|------------------|------------------|------------------|
------------------|------------------|------------------|------------------|
------------------|------------------|------------------|------------------|
------------------|------------------|------------------|------------------|
------------------|------------------|------------------|------------------|
------------------|------------------|------------------|------------------|


                                                                             
------------------|------------------|------------------|------------------||
------------------|------------------|------------------|------------------||
------------------|------------------|------------------|------------------||
------------------|------------------|------------------|------------------||
------------------|------------------|------------------|------------------||
------------------|------------------|------------------|------------------||

Guitar 3
Standard Tuning

E||--------------------||------------------|------------------|------------------|
B||--------------------||------------------|------------------|------------------|
G||*------------------*||------------------|------------------|------------------|
D||*------------------*||------------------|------------------|------------------|
A||--------------------||------------------|------------------|------------------|
E||--------------------||------------------|------------------|------------------|


                                                                                
------------------|------------------|------------------||--------------------||
------------------|------------------|------------------||--------------------||
------------------|------------------|------------------||*------------------*||
------------------|------------------|------------------||*------------------*||
------------------|------------------|------------------||--------------------||
------------------|------------------|------------------||--------------------||


                                                                            
------------------|------------------|------------------|------------------|
------------------|------------------|------------------|------------------|
------------------|------------------|------------------|------------------|
------------------|------------------|------------------|------------------|
------------------|------------------|------------------|------------------|
------------------|------------------|------------------|------------------|


                                                                            
------------------|------------------|------------------|------------------|
------------------|------------------|------------------|------------------|
------------------|------------------|------------------|------------------|
------------------|------------------|------------------|------------------|
------------------|------------------|------------------|------------------|
------------------|------------------|------------------|------------------|


                                                                            
------------------|------------------|------------------|------------------|
------------------|------------------|------------------|------------------|
------------------|------------------|------------------|------------------|
------------------|------------------|------------------|------------------|
------------------|------------------|------------------|------------------|
------------------|------------------|------------------|------------------|


                                      Or you could use Gtr. 1 to play this part                                              
------------------|------------------|---------------------|-----------------------|
------------------|------------------|---------------------|-----------------------|
------------------|------------------|---------------------|-----------------------|
------------------|------------------|--9------12----------|--7----9----10----7----|
------------------|------------------|---------------------|-----------------------|
------------------|------------------|---------------------|-----------------------|


                                                                                        
---------------------|-------------------|---------------------|-----------------------|
---------------------|-------------------|---------------------|-----------------------|
---------------------|-------------------|---------------------|-----------------------|
--5------4------5----|--0----------------|--9------12----------|--7----9----11----9----|
---------------------|-------------------|---------------------|-----------------------|
---------------------|-------------------|---------------------|-----------------------|


                                                                                     
--------------------|---------------------|--------------------|--------------------|
--------------------|---------------------|--------------------|--------------------|
--------------------|---------------------|--------------------|--------------------|
--10----------------|--9--------7----5----|--4------5----------|----------7----5----|
--------------------|---------------------|--------------------|--------------------|
--------------------|---------------------|--------------------|--------------------|


                                                                              
--------------------|------------------|------------------|------------------|
--------------------|------------------|------------------|------------------|
--------------------|------------------|------------------|------------------|
--4------5----------|------------------|------------------|------------------|
--------------------|------------------|------------------|------------------|
--------------------|------------------|------------------|------------------|





Comments


Popular That Dog tabs & chords
Angel 1 Bass Tabs
Annie Bass Tabs
Family Functions 1 Bass Tabs
One Summer Night 1 Bass Tabs
Retreat From The Sun 1 Bass Tabs
Long Island Chords
Everytime I Try Tabs
Lip Gloss Tabs
Old Timer Tabs
Retreat From The Sun Tabs


Song lyrics



↑ Back to top | Tablatures and chords are parodies/interpretations of the original songs. You may use it for private study, scholarship, research or language learning purposes only
© 2014 AZChords.com Contact us | Privacy policy | DMCA | Add/correct tabs | Request tabs | Top 50 tabs