>
 >
Long Island 1

Long Island 1 Bass Tabs

That Dog - Long Island 1 chords, tabs, tablatures, lyrics

Guitar lessons | Add/correct | Request | Top 50 tabs Artists:  A B C D E F G H I J K L M N O P Q R S T U V W X Y Z 0-9

Long Island 1 Bass Tabs – That Dog

CD, Sheet music, Poster

Do you like Long Island 1? Share with your friends now
Bass Tabs
that dog - long island

I am only responsible for submitting this.


Bass
Standard Tuning


G||--------------|--------------------------|--------------------------|
D||--------------|--------------------------|--------------------------|
A||--------------|--3--3--3--3--3--3--3--3--|--------------------------|
E||--------------|--------------------------|--3--3--3--3--3--3--3--3--|


                                                                                 
--------------------------|--------------------------|--------------------------|
--------------------------|--------------------------|--------------------------|
--3--3--3--3--3--3--3--3--|--------------------------|--------------------------|
--------------------------|--3--3--3--3--3--3--3--3--|--5--5--5--5--5--5--5--5--|


                                                                          
--------------------------|--------------------------|-------------------|
--------------------------|--------------------------|-------------------|
--3--3--3--3--3--3--3--3--|--3--3--3--3--3--3--3--3--|-------------------|
--------------------------|--------------------------|--3----------------|


                                                                             
-------------------------|-------------------------|------------------------|
-----5----------5--------|-------------------------|-----5-----4------4-----|
--3-------3--3-----3-----|-----5-------5-----5-----|--3-----3------------3--|
----------------------0--|--3-------3-----3-----3--|------------------------|


                                                                               
-------------------------|--------------------------|-------------------------|
-------------------------|--------------------------|-----------5-------------|
-----------5-------5-----|-----------------7--------|--3--3--3-------3--3--3--|
--3--3--3-------3-----3--|--5--5--5--5--5-----5--5--|-------------------------|


                                                                                            
-------------------|-------------------|--------------------------|------------------------|
-------------------|-------------------|-----------9--------7-----|----5--------4----------|
--3----------------|-------------------|--7--7--7-----7--7-----7--|-------7--7-----5----2--|
-------------------|--3----------------|--------------------------|------------------------|


                                                                              
------------------------|-------------------------|--------------------------|
------------------------|-------------------------|-----------7--------5-----|
--3--3----2--3--3----2--|--3--3----2--3--3--3--5--|--7--7--7-----7--7-----7--|
------------------------|-------------------------|--------------------------|


                                                                            
------------------------|------------------------|-------------------------|
----4--------4----------|------------------------|-------------------------|
-------5--5-----5----2--|--3--3----2--3--3----2--|--3--3----2--3--3--3--5--|
------------------------|------------------------|-------------------------|


                                                                           
--------------------9----|-----------------------|------------------------|
-----------9-------------|-----9-----7-----------|------------------------|
--7--7--7-----7--7-------|--7-----7-----------2--|--3--3----2--3--3----2--|
-------------------------|-----------------------|------------------------|


                                                                                
-------------------------|--------------------------|--------------------------|
-------------------------|--------------------------|--------------------------|
--3--3----2--3--3--3--3--|--4--4--4--4--4--4--4--4--|--4--4--4--4--4--4--4--4--|
-------------------------|--------------------------|--------------------------|


                                                                                 
--------------------------|--------------------------|--------------------------|
--------------------------|--------------------------|--------------------------|
--5--5--5--5--5--5--5--5--|--------------------------|--3--3--3--3--------------|
--------------------------|--3--3--3--3--3--3--3--3--|--------------3--3--3--3--|


                                                                                 
--------------------------|--------------------------|--------------------------|
--------------------------|--------------------------|--------------------------|
--------------------------|--5--5--5--5--------------|--------------------------|
--5--5--5--5--5--5--5--5--|--------------3--3--3--3--|--5--5--5--5--5--5--5--5--|


                                                                                 
--------------------------|--------------------------|--------------------------|
--------------------------|--------------------------|--------------------------|
--3--3--3--3--------------|--------------------------|--------------------------|
--------------3--3--3--3--|--5--5--5--3--5--5--5--3--|--5--5--5--3--5--5--5--3--|


                                                                          
--------------------------|-------------------|--------------------------|
--------------------------|-------------------|--------------------------|
--------------------------|-------------------|--3--3--3--3--3--3--3--3--|
--5--5--5--3--5--5--5--3--|--5----------------|--------------------------|


                                                                                 
--------------------------|--------------------------|--------------------------|
--------------------------|--------------------------|--------------------------|
--------------------------|--3--3--3--3--3--3--3--3--|--------------------------|
--3--3--3--3--3--3--3--3--|--------------------------|--3--3--3--3--3--3--3--3--|


                                                                          
--------------------------|--------------------------|-------------------|
--------------------------|--------------------------|-------------------|
--------------------------|--3--3--3--3--3--3--3--3--|--3----------------|
--5--5--5--5--5--5--5--5--|--------------------------|-------------------|


                                                                        
-------------------|--------------------------|------------------------|
-------------------|-----------9--------7-----|----5--------4----------|
-------------------|--7--7--7-----7--7-----7--|-------7--7-----5-------|
--3----------------|--------------------------|---------------------3--|


                                                                               
--------------------------|-------------------------|-------------------------|
--------------------------|-------------------------|-----------7-------5-----|
--------------------------|-------------------------|--7--7--7-------7-----7--|
--5--5--5--3--5--5--5--3--|--5--5--5--3--5--5--5----|-------------------------|


                                                                              
------------------------|--------------------------|-------------------------|
----4--------4----------|--------------------------|-------------------------|
-------5--5-----5-------|--------------------------|-------------------------|
---------------------3--|--5--5--5--3--5--5--5--3--|--5--5--5--3--5--5--5----|


                                                                           
-------------------9----|----------------------|--------------------------|
-----------9------------|----9-----7-----------|--------------------------|
--7--7--7-------7-------|-------7--------------|--------------------------|
------------------------|-------------------3--|--5--5--5--3--5--5--5--3--|


                                                                                 
--------------------------|--------------------------|--------------------------|
--------------------------|--------------------------|--------------------------|
--------------------------|--4--4--4--4--4--4--4--4--|--4--4--4--4--4--4--4--4--|
--5--5--5--3--5--5--5--5--|--------------------------|--------------------------|


                                                                                 
--------------------------|--------------------------|--------------------------|
--------------------------|--------------------------|--------------------------|
--5--5--5--5--5--5--5--5--|--------------------------|--3--3--3--3--------------|
--------------------------|--3--3--3--3--3--3--3--3--|--------------3--3--3--3--|


                                                                                 
--------------------------|--------------------------|--------------------------|
--------------------------|--------------------------|--------------------------|
--------------------------|--5--5--5--5--------------|--------------------------|
--5--5--5--5--5--5--5--5--|--------------3--3--3--3--|--5--5--5--5--5--5--5--5--|


                                                                                 
--------------------------|--------------------------|--------------------------|
--------------------------|--------------------------|--------------------------|
--3--3--3--3--------------|--------------------------|--------------------------|
--------------3--3--3--3--|--5--5--5--3--5--5--5--3--|--5--5--5--3--5--5--5--3--|


                                                                                 
--------------------------|--------------------------|--------------------------|
--------------------------|--------------------------|--------------------------|
--------------------------|--------------------------|-----------3--------------|
--5--5--5--3--5--5--5--3--|--5--5--5--3--5--5--5--3--|--5--5--5-----5--5--5--3--|


                                                                          
--------------------------|--------------------------|-------------------|
--------------------------|--------------------------|-------------------|
-----------5--------------|-----------7--------------|-------------------|
--5--5--5-----5--5--5--3--|--5--5--5-----5--5--5--3--|--5----------------|


                                                                                   
--------------------|-------------------|---------------------|-------------------|
--------------------|-------------------|---------------------|-------------------|
--3------------3----|-------------------|--3------5------7----|-------------------|
--------------------|--3----------------|---------------------|--3----------------|


                                                                               
-------------------|-------------------|-------------------|------------------|
-------------------|-------------------|-------------------|------------------|
-------------------|--3----------------|--3----------------|------------------|
--5----------------|-------------------|-------------------|------------------|


                                                           
-------------------|------------------|------------------||
-------------------|------------------|------------------||
-------------------|------------------|------------------||
--3----------------|------------------|------------------||





Comments


Popular That Dog tabs & chords
Back Of My Mind 1 Bass Tabs
Being With You Bass Tabs
Gagged And Tied Bass Tabs
Lip Gloss 1 Bass Tabs
Raina 1 Bass Tabs
Ms. Wrong Chords
Anymore Tabs
Holidays Tabs
Minneapolis Tabs
Ms. Wrong Tabs


Song lyrics



↑ Back to top | Tablatures and chords are parodies/interpretations of the original songs. You may use it for private study, scholarship, research or language learning purposes only
© 2014 AZChords.com Contact us | Privacy policy | DMCA | Add/correct tabs | Request tabs | Top 50 tabs