>
 >
Long Island

Long Island Guitar Tabs

That Dog - Long Island chords, tabs, tablatures, lyrics

Guitar lessons | Add/correct | Request | Top 50 tabs Artists:  A B C D E F G H I J K L M N O P Q R S T U V W X Y Z 0-9

Long Island Guitar Tabs – That Dog

CD, Sheet music, Poster

Do you like Long Island? Share with your friends now
ChordsTabsUkulele
that dog - long island

I am only responsible for submitting this.


Guitar 1
Tuning: EADGBD

D||--------------|--0----------------|--0----------------|--0----------------|
B||--------------|--1----------------|--0----------------|--1----------------|
G||--------------|--0----------------|--0----------------|--0----------------|
D||--------------|--2----------------|--0----------------|--2----------------|
A||--------------|--3----------------|--2----------------|--3----------------|
E||--------------|-------------------|--3----------------|-------------------|


                                                                                
--0----------------|--0----------------|--0----------------|--0----------------|
--0----------------|--2----------------|--1----------------|--1----------------|
--0----------------|--2----------------|--0----------------|--0----------------|
--0----------------|--2----------------|--2----------------|--2----------------|
--2----------------|--0----------------|--3----------------|--3----------------|
--3----------------|-------------------|-------------------|-------------------|


                                                                                
--0----------------|--0----------------|--0----------------|--0----------------|
--0----------------|--1----------------|--0----------------|--1----------------|
--0----------------|--0----------------|--0----------------|--0----------------|
--0----------------|--2----------------|--0----------------|--2----------------|
--2----------------|--3----------------|--2----------------|--3----------------|
--3----------------|-------------------|--3----------------|-------------------|


                                                                                
--0----------------|--0----------------|--0----------------|--0----------------|
--0----------------|--2----------------|--1----------------|--1----------------|
--0----------------|--2----------------|--0----------------|--0----------------|
--0----------------|--2----------------|--2----------------|--2----------------|
--2----------------|--0----------------|--3----------------|--3----------------|
--3----------------|-------------------|-------------------|-------------------|


                                                                          
--0----------------|--4--4--4--4--4--4--4--4--|--4--4--4--4--4--4--4-----|
--0----------------|--3--3--3--3--3--3--3--3--|--3--3--3--3--3--3--3--0--|
--0----------------|--0--0--0--0--0--0--0--0--|--0--0--0--0--0--0--0--0--|
--0----------------|--------------------------|-----------------------0--|
--2----------------|--------------------------|--------------------------|
--3----------------|--------------------------|--------------------------|


                                                                                 
--0--0--0--0--0--0--0--0--|--0--0--0--0--0--0--0-----|--4--4--4--4--4--4--4--4--|
--1--1--1--3--1--1--1--3--|--1--1--1--3--1--1--1--0--|--3--3--3--3--3--3--3--3--|
--0--0--0--0--0--0--0--0--|--0--0--0--0--0--0--0--0--|--0--0--0--0--0--0--0--0--|
--2--2--2--2--2--2--2--2--|--2--2--2--2--2--2--2--0--|--------------------------|
--------------------------|--------------------------|--------------------------|
--------------------------|--------------------------|--------------------------|


                                                                                 
--4--4--4--4--4--4--4-----|--0--0--0--0--0--0--0--0--|--0--0--0--0--0--0--0-----|
--3--3--3--3--3--3--3--0--|--1--1--1--3--1--1--1--3--|--1--1--1--3--1--1--1--0--|
--0--0--0--0--0--0--0--0--|--0--0--0--0--0--0--0--0--|--0--0--0--0--0--0--0--0--|
-----------------------0--|--2--2--2--2--2--2--2--2--|--2--2--2--2--2--2--2--0--|
--------------------------|--------------------------|--------------------------|
--------------------------|--------------------------|--------------------------|


                                                                                 
--4--4--4--4--4--4--4--4--|--4--4--4--4--4--4--4-----|--0--0--0--0--0--0--0--0--|
--3--3--3--3--3--3--3--3--|--3--3--3--3--3--3--3--0--|--1--1--1--3--1--1--1--3--|
--0--0--0--0--0--0--0--0--|--0--0--0--0--0--0--0--0--|--0--0--0--0--0--0--0--0--|
--------------------------|-----------------------0--|--2--2--2--2--2--2--2--2--|
--------------------------|--------------------------|--------------------------|
--------------------------|--------------------------|--------------------------|


                                                                                 
--0--0--0--0--0--0--0-----|--2--2--2--2--2--2--2--2--|--2--2--2--2--2--2--2--2--|
--1--1--1--3--1--1--1--0--|--2--2--2--2--2--2--2--2--|--2--2--2--2--2--2--2--2--|
--0--0--0--0--0--0--0--0--|--0--0--0--0--0--0--0--0--|--0--0--0--0--0--0--0--0--|
--2--2--2--2--2--2--2--0--|--2--2--2--2--2--2--2--2--|--2--2--2--2--2--2--2--2--|
--------------------------|--0--0--0--0--0--0--0--0--|--0--0--0--0--0--0--0--0--|
--------------------------|--------------------------|--------------------------|


                                                                               
--0--0--0--0--0--0--0--0--|--0--0--0--0--0--0--0--0--|--0----0--0--0----0--0--|
--3--3--3--3--3--3--3--3--|--3--3--3--3--3--3--3--3--|--1----1--1--3----3--3--|
--0--0--0--0--0--0--0--0--|--0--0--0--0--0--0--0--0--|--0----0--0--0----0--0--|
--0--0--0--0--0--0--0--0--|--0--0--0--0--0--0--0--0--|--2----2--2--4----4--4--|
--2--2--2--2--2--2--2--2--|--2--2--2--2--2--2--2--2--|--3----3--3--5----5--5--|
--------------------------|--------------------------|------------------------|


                                                                           
--0----0--0--0--0--0----|--0----0--0--0----0--0--|--0----0--0--0--0--0----|
--2----2--2--2--2--2----|--1----1--1--3----3--3--|--2----2--2--2--2--2----|
--2----2--2--2--2--2----|--0----0--0--0----0--0--|--2----2--2--2--2--2----|
--2----2--2--2--2--2----|--2----2--2--4----4--4--|--2----2--2--2--2--2----|
--0----0--0--0--0--0----|--3----3--3--5----5--5--|--0----0--0--0--0--0----|
------------------------|------------------------|------------------------|


                                                                               
--0----0--0--0----0--0--|--0--0--0--0--0--0--0--0--|--0--0--0--0--0--0--0--0--|
--1----1--1--3----3--0--|--1--1--1--0--1--1--1--0--|--1--1--1--0--1--1--1--0--|
--0----0--0--0----0--0--|--0--0--0--0--0--0--0--0--|--0--0--0--0--0--0--0--0--|
--2----2--2--4----4--0--|--2--2--2--0--2--2--2--0--|--2--2--2--0--2--2--2--0--|
--3----3--3--5----5-----|--3--3--3--3--3--3--3--3--|--3--3--3--3--3--3--3--3--|
------------------------|--------------------------|--------------------------|


                                                                                        
--0--0--0--0--0--0--0--0--|--0------------0----|--0----------------|--0----------------|
--1--1--1--0--1--1--1--0--|--1------------1----|--1----------------|--0----------------|
--0--0--0--0--0--0--0--0--|--0------------0----|--0----------------|--0----------------|
--2--2--2--0--2--2--2--0--|--2-----------------|--2----------------|--0----------------|
--3--3--3--3--3--3--3--3--|--3-----------------|--3----------------|--2----------------|
--------------------------|--------------------|-------------------|--3----------------|


                                                                                
--0----------------|--0----------------|--0----------------|--0----------------|
--1----------------|--0----------------|--2----------------|--1----------------|
--0----------------|--0----------------|--2----------------|--0----------------|
--2----------------|--0----------------|--2----------------|--2----------------|
--3----------------|--2----------------|--0----------------|--3----------------|
-------------------|--3----------------|-------------------|-------------------|


                                                                   
--0----------------|--0----------------|--4--4--4--4--4--4--4--4--|
--1----------------|--0----------------|--3--3--3--3--3--3--3--3--|
--0----------------|--0----------------|--0--0--0--0--0--0--0--0--|
--2----------------|--0----------------|--------------------------|
--3----------------|--2----------------|--------------------------|
-------------------|--3----------------|--------------------------|


                                                                                 
--4--4--4--4--4--4--4-----|--------------------------|--------------------------|
--3--3--3--3--3--3--3--0--|--1--1--1--0--1--1--1--0--|--1--1--1--0--1--1--1--0--|
--0--0--0--0--0--0--0--0--|--0--0--0--0--0--0--0--0--|--0--0--0--0--0--0--0--0--|
-----------------------0--|--2--2--2--0--2--2--2--0--|--2--2--2--0--2--2--2--0--|
--------------------------|--0--0--0-----0--0--0-----|--0--0--0-----0--0--0-----|
--------------------------|--------------------------|--------------------------|


                                                                                 
--4--4--4--4--4--4--4--4--|--4--4--4--4--4--4--4-----|--------------------------|
--3--3--3--3--3--3--3--3--|--3--3--3--3--3--3--3--0--|--1--1--1--0--1--1--1--0--|
--0--0--0--0--0--0--0--0--|--0--0--0--0--0--0--0--0--|--0--0--0--0--0--0--0--0--|
--------------------------|-----------------------0--|--2--2--2--0--2--2--2--0--|
--------------------------|--------------------------|--0--0--0-----0--0--0-----|
--------------------------|--------------------------|--------------------------|


                                                                                 
--------------------------|--4--4--4--4--4--4--4--4--|--4--4--4--4--4--4--4-----|
--1--1--1--0--1--1--1--0--|--3--3--3--3--3--3--3--3--|--3--3--3--3--3--3--3--0--|
--0--0--0--0--0--0--0--0--|--0--0--0--0--0--0--0--0--|--0--0--0--0--0--0--0--0--|
--2--2--2--0--2--2--2--0--|--------------------------|-----------------------0--|
--0--0--0-----0--0--0-----|--------------------------|--------------------------|
--------------------------|--------------------------|--------------------------|


                                                                               
--------------------------|--------------------------|--16------17------16----|
--1--1--1--0--1--1--1--0--|--1--1--1--0--1--1--1--0--|------------------------|
--0--0--0--0--0--0--0--0--|--0--0--0--0--0--0--0--0--|------------------------|
--2--2--2--0--2--2--2--0--|--2--2--2--0--2--2--2--0--|------------------------|
--0--0--0--2--0--0--0--2--|--0--0--0--2--0--0--0--2--|------------------------|
--------------------------|--------------------------|------------------------|


                                                                                        
----17------16----17----|--16------17----------|------------------|--16----------------|
------------------------|----------------------|------------------|--------------------|
------------------------|----------------------|------------------|--------------------|
------------------------|----------------------|------------------|--------------------|
------------------------|----------------------|------------------|--------------------|
------------------------|----------------------|------------------|--------------------|


                                                                                 
--14----------------|--12----------------|------------------|-------------------|
--------------------|--------------------|------------------|----------------0--|
--------------------|--------------------|------------------|----------------0--|
--------------------|--------------------|------------------|----------------0--|
--------------------|--------------------|------------------|-------------------|
--------------------|--------------------|------------------|-------------------|


                                                                                 
--------------------------|--------------------------|--------------------------|
--1--1--1--0--1--1--1--0--|--1--1--1--0--1--1--1--0--|--1--1--1--0--1--1--1--0--|
--0--0--0--0--0--0--0--0--|--0--0--0--0--0--0--0--0--|--0--0--0--0--0--0--0--0--|
--2--2--2--0--2--2--2--0--|--2--2--2--0--2--2--2--0--|--2--2--2--0--2--2--2--0--|
--3--3--3-----3--3--3-----|--3--3--3-----3--3--3-----|--3--3--3-----3--3--3-----|
--------------------------|--------------------------|--------------------------|


                                                                                     
--------------------------|--0----------------|------------------|------------------|
--1--1--1--0--1--1--1--0--|--1----------------|------------------|------------------|
--0--0--0--0--0--0--0--0--|--0----------------|------------------|------------------|
--2--2--2--0--2--2--2--0--|--2----------------|------------------|------------------|
--3--3--3-----3--3--3-----|--3----------------|------------------|------------------|
--------------------------|-------------------|------------------|------------------|


                                                                             
--0----------------|------------------|------------------|------------------|
--1----------------|------------------|------------------|------------------|
--0----------------|------------------|------------------|------------------|
--2----------------|------------------|------------------|------------------|
--3----------------|------------------|------------------|------------------|
-------------------|------------------|------------------|------------------|


                                                                            
------------------|------------------|------------------|------------------|
------------------|------------------|------------------|------------------|
------------------|------------------|------------------|------------------|
------------------|------------------|------------------|------------------|
------------------|------------------|------------------|------------------|
------------------|------------------|------------------|------------------|


                                                                             
------------------|------------------|------------------|------------------||
------------------|------------------|------------------|------------------||
------------------|------------------|------------------|------------------||
------------------|------------------|------------------|------------------||
------------------|------------------|------------------|------------------||
------------------|------------------|------------------|------------------||


Guitar 2
Tuning: EADGBD


D||--------------|--0--0--0--0--0--0--0--0--|--0--0--0--0--0--0--0--0--|
B||--------------|--1--1--1--1--1--1--1--1--|--0--0--0--0--0--0--0--0--|
G||--------------|--0--0--0--0--0--0--0--0--|--0--0--0--0--0--0--0--0--|
D||--------------|--2--2--2--2--2--2--2--2--|--0--0--0--0--0--0--0--0--|
A||--------------|--3--3--3--3--3--3--3--3--|--2--2--2--2--2--2--2--2--|
E||--------------|--------------------------|--3--3--3--3--3--3--3--3--|


                                                                                 
--0--0--0--0--0--0--0--0--|--0--0--0--0--0--0--0--0--|--0--0--0--0--0--0--0--0--|
--1--1--1--1--1--1--1--1--|--0--0--0--0--0--0--0--0--|--2--2--2--2--2--2--2--2--|
--0--0--0--0--0--0--0--0--|--0--0--0--0--0--0--0--0--|--2--2--2--2--2--2--2--2--|
--2--2--2--2--2--2--2--2--|--0--0--0--0--0--0--0--0--|--2--2--2--2--2--2--2--2--|
--3--3--3--3--3--3--3--3--|--2--2--2--2--2--2--2--2--|--0--0--0--0--0--0--0--0--|
--------------------------|--3--3--3--3--3--3--3--3--|--------------------------|


                                                                          
--0--0--0--0--0--0--0--0--|--0--0--0--0--0--0--0--0--|--0----------------|
--1--1--1--1--1--1--1--1--|--1--1--1--1--1--1--1--1--|--0----------------|
--0--0--0--0--0--0--0--0--|--0--0--0--0--0--0--0--0--|--0----------------|
--2--2--2--2--2--2--2--2--|--2--2--2--2--2--2--2--2--|--0----------------|
--3--3--3--3--3--3--3--3--|--3--3--3--3--3--3--3--3--|--2----------------|
--------------------------|--------------------------|--3----------------|


                                                                                 
--0--0--0--0--0--0--0--0--|--0--0--0--0--0--0--0--0--|--0--0--0--0--0--0--0--0--|
--1--1--1--1--1--1--1--1--|--0--0--0--0--0--0--0--0--|--1--1--1--1--1--1--1--1--|
--0--0--0--0--0--0--0--0--|--0--0--0--0--0--0--0--0--|--0--0--0--0--0--0--0--0--|
--2--2--2--2--2--2--2--2--|--0--0--0--0--0--0--0--0--|--2--2--2--2--2--2--2--2--|
--3--3--3--3--3--3--3--3--|--2--2--2--2--2--2--2--2--|--3--3--3--3--3--3--3--3--|
--------------------------|--3--3--3--3--3--3--3--3--|--------------------------|


                                                                                 
--0--0--0--0--0--0--0--0--|--0--0--0--0--0--0--0--0--|--0--0--0--0--0--0--0--0--|
--0--0--0--0--0--0--0--0--|--2--2--2--2--2--2--2--2--|--1--1--1--1--1--1--1--1--|
--0--0--0--0--0--0--0--0--|--2--2--2--2--2--2--2--2--|--0--0--0--0--0--0--0--0--|
--0--0--0--0--0--0--0--0--|--2--2--2--2--2--2--2--2--|--2--2--2--2--2--2--2--2--|
--2--2--2--2--2--2--2--2--|--0--0--0--0--0--0--0--0--|--3--3--3--3--3--3--3--3--|
--3--3--3--3--3--3--3--3--|--------------------------|--------------------------|


                                                                   
--0----------------|--0----------------|--4--4--4--4--4--4--4--4--|
--1----------------|--0----------------|--3--3--3--3--3--3--3--3--|
--0----------------|--0----------------|--0--0--0--0--0--0--0--0--|
--2----------------|--0----------------|--------------------------|
--3----------------|--2----------------|--------------------------|
-------------------|--3----------------|--------------------------|


                                                                                 
--4--4--4--4--4--4--4-----|--0--0--0--0--0--0--0--0--|--0--0--0--0--0--0--0-----|
--3--3--3--3--3--3--3--0--|--1--1--1--3--1--1--1--3--|--1--1--1--3--1--1--1--0--|
--0--0--0--0--0--0--0--0--|--0--0--0--0--0--0--0--0--|--0--0--0--0--0--0--0--0--|
-----------------------0--|--2--2--2--2--2--2--2--2--|--2--2--2--2--2--2--2--0--|
--------------------------|--------------------------|--------------------------|
--------------------------|--------------------------|--------------------------|


                                                                                 
--4--4--4--4--4--4--4--4--|--4--4--4--4--4--4--4-----|--0--0--0--0--0--0--0--0--|
--3--3--3--3--3--3--3--3--|--3--3--3--3--3--3--3--0--|--1--1--1--3--1--1--1--3--|
--0--0--0--0--0--0--0--0--|--0--0--0--0--0--0--0--0--|--0--0--0--0--0--0--0--0--|
--------------------------|-----------------------0--|--2--2--2--2--2--2--2--2--|
--------------------------|--------------------------|--------------------------|
--------------------------|--------------------------|--------------------------|


                                                                                 
--0--0--0--0--0--0--0-----|--4--4--4--4--4--4--4--4--|--4--4--4--4--4--4--4-----|
--1--1--1--3--1--1--1--0--|--3--3--3--3--3--3--3--3--|--3--3--3--3--3--3--3--0--|
--0--0--0--0--0--0--0--0--|--0--0--0--0--0--0--0--0--|--0--0--0--0--0--0--0--0--|
--2--2--2--2--2--2--2--0--|--------------------------|-----------------------0--|
--------------------------|--------------------------|--------------------------|
--------------------------|--------------------------|--------------------------|


                                                                                 
--0--0--0--0--0--0--0--0--|--0--0--0--0--0--0--0-----|--2--2--2--2--2--2--2--2--|
--1--1--1--3--1--1--1--3--|--1--1--1--3--1--1--1--0--|--2--2--2--2--2--2--2--2--|
--0--0--0--0--0--0--0--0--|--0--0--0--0--0--0--0--0--|--0--0--0--0--0--0--0--0--|
--2--2--2--2--2--2--2--2--|--2--2--2--2--2--2--2--0--|--2--2--2--2--2--2--2--2--|
--------------------------|--------------------------|--0--0--0--0--0--0--0--0--|
--------------------------|--------------------------|--------------------------|


                                                                                 
--2--2--2--2--2--2--2--2--|--0--0--0--0--0--0--0--0--|--0--0--0--0--0--0--0--0--|
--2--2--2--2--2--2--2--2--|--3--3--3--3--3--3--3--3--|--3--3--3--3--3--3--3--3--|
--0--0--0--0--0--0--0--0--|--0--0--0--0--0--0--0--0--|--0--0--0--0--0--0--0--0--|
--2--2--2--2--2--2--2--2--|--0--0--0--0--0--0--0--0--|--0--0--0--0--0--0--0--0--|
--0--0--0--0--0--0--0--0--|--2--2--2--2--2--2--2--2--|--2--2--2--2--2--2--2--2--|
--------------------------|--------------------------|--------------------------|


                                                                           
--2----2--2--4----4--4--|--0----0--0--0--0--0----|--2----2--2--4----4--4--|
--1----1--1--3----3--3--|--2----2--2--2--2--2----|--1----1--1--3----3--3--|
--0----0--0--0----0--0--|--2----2--2--2--2--2----|--0----0--0--0----0--0--|
--2----2--2--4----4--4--|--2----2--2--2--2--2----|--2----2--2--4----4--4--|
------------------------|------------------------|------------------------|
------------------------|------------------------|------------------------|


                                                                             
--0----0--0--0--0--0----|--2----2--2--4----4--0--|--0--0--0--0--0--0--0--0--|
--2----2--2--2--2--2----|--1----1--1--3----3--0--|--1--1--1--0--1--1--1--0--|
--2----2--2--2--2--2----|--0----0--0--0----0--0--|--0--0--0--0--0--0--0--0--|
--2----2--2--2--2--2----|--2----2--2--4----4--0--|--2--2--2--0--2--2--2--0--|
------------------------|------------------------|--3--3--3-----3--3--3-----|
------------------------|------------------------|--------------------------|


                                                                          
--0--0--0--0--0--0--0--0--|--0--0--0--0--0--0--0--0--|--0----------------|
--1--1--1--0--1--1--1--0--|--1--1--1--0--1--1--1--0--|--1----------------|
--0--0--0--0--0--0--0--0--|--0--0--0--0--0--0--0--0--|--0----------------|
--2--2--2--0--2--2--2--0--|--2--2--2--0--2--2--2--0--|--2----------------|
--3--3--3-----3--3--3-----|--3--3--3-----3--3--3-----|--3----------------|
--------------------------|--------------------------|-------------------|


                                                                                 
--0--0--0--0--0--0--0--0--|--0--0--0--0--0--0--0--0--|--0--0--0--0--0--0--0--0--|
--1--1--1--1--1--1--1--1--|--0--0--0--0--0--0--0--0--|--1--1--1--1--1--1--1--1--|
--0--0--0--0--0--0--0--0--|--0--0--0--0--0--0--0--0--|--0--0--0--0--0--0--0--0--|
--2--2--2--2--2--2--2--2--|--0--0--0--0--0--0--0--0--|--2--2--2--2--2--2--2--2--|
--3--3--3--3--3--3--3--3--|--2--2--2--2--2--2--2--2--|--3--3--3--3--3--3--3--3--|
--------------------------|--3--3--3--3--3--3--3--3--|--------------------------|


                                                                                 
--0--0--0--0--0--0--0--0--|--0--0--0--0--0--0--0--0--|--0--0--0--0--0--0--0--0--|
--0--0--0--0--0--0--0--0--|--2--2--2--2--2--2--2--2--|--1--1--1--1--1--1--1--1--|
--0--0--0--0--0--0--0--0--|--2--2--2--2--2--2--2--2--|--0--0--0--0--0--0--0--0--|
--0--0--0--0--0--0--0--0--|--2--2--2--2--2--2--2--2--|--2--2--2--2--2--2--2--2--|
--2--2--2--2--2--2--2--2--|--0--0--0--0--0--0--0--0--|--3--3--3--3--3--3--3--3--|
--3--3--3--3--3--3--3--3--|--------------------------|--------------------------|


                                                                   
--0----------------|--0----------------|--4--4--4--4--4--4--4--4--|
--1----------------|--0----------------|--3--3--3--3--3--3--3--3--|
--0----------------|--0----------------|--0--0--0--0--0--0--0--0--|
--2----------------|--0----------------|--------------------------|
--3----------------|--2----------------|--------------------------|
-------------------|--3----------------|--------------------------|


                                                                                 
--4--4--4--4--4--4--4--0--|--0--0--0--0--0--0--0--0--|--0--0--0--0--0--0--0--0--|
--3--3--3--3--3--3--3--0--|--1--1--1--0--1--1--1--0--|--1--1--1--0--1--1--1--0--|
--0--0--0--0--0--0--0--0--|--0--0--0--0--0--0--0--0--|--0--0--0--0--0--0--0--0--|
--------------------------|--2--2--2--0--2--2--2--0--|--2--2--2--0--2--2--2--0--|
--------------------------|--0--0--0-----0--0--0-----|--0--0--0-----0--0--0-----|
--------------------------|--------------------------|--------------------------|


                                                                   
-------------------|-------------------|--0--0--0--0--0--0--0--0--|
-------------------|----------------0--|--1--1--1--0--1--1--1--0--|
-------------------|----------------0--|--0--0--0--0--0--0--0--0--|
-------------------|----------------0--|--2--2--2--0--2--2--2--0--|
--7----------------|-------------------|--------------------------|
-------------------|-------------------|--------------------------|


                                                                   
--0--0--0--0--0--0--0--0--|-------------------|-------------------|
--1--1--1--1--1--1--1--0--|-------------------|----------------0--|
--0--0--0--0--0--0--0--0--|-------------------|----------------0--|
--2--2--2--2--2--2--2--0--|-------------------|----------------0--|
--------------------------|--7----------------|-------------------|
--------------------------|-------------------|-------------------|


                                                                                 
--0--0--0--0--0--0--0--0--|--0--0--0--0--0--0--0--0--|--2--2--2--2--2--2--2--2--|
--1--1--1--0--1--1--1--0--|--1--1--1--0--1--1--1--0--|--2--2--2--2--2--2--2--2--|
--0--0--0--0--0--0--0--0--|--0--0--0--0--0--0--0--0--|--0--0--0--0--0--0--0--0--|
--2--2--2--0--2--2--2--0--|--2--2--2--0--2--2--2--0--|--2--2--2--2--2--2--2--2--|
--------------------------|--------------------------|--0--0--0--0--0--0--0--0--|
--------------------------|--------------------------|--------------------------|


                                                                                 
--2--2--2--2--2--2--2--2--|--0--0--0--0--0--0--0--0--|--0--0--0--0--0--0--0--0--|
--2--2--2--2--2--2--2--2--|--3--3--3--3--3--3--3--3--|--3--3--3--3--3--3--3--3--|
--0--0--0--0--0--0--0--0--|--0--0--0--0--0--0--0--0--|--0--0--0--0--0--0--0--0--|
--2--2--2--2--2--2--2--2--|--0--0--0--0--0--0--0--0--|--0--0--0--0--0--0--0--0--|
--0--0--0--0--0--0--0--0--|--2--2--2--2--2--2--2--2--|--2--2--2--2--2--2--2--2--|
--------------------------|--------------------------|--------------------------|


                                                                           
--2----2--2--4----4--4--|--0----0--0--0--0--0----|--2----2--2--4----4--4--|
--1----1--1--3----3--3--|--2----2--2--2--2--2----|--1----1--1--3----3--3--|
--0----0--0--0----0--0--|--2----2--2--2--2--2----|--0----0--0--0----0--0--|
--0----0--0--0----0--0--|--0----0--0--0--0--0----|--2----2--2--4----4--4--|
------------------------|------------------------|------------------------|
------------------------|------------------------|------------------------|


                                                                            
--0----0--0--0--0--0----|--2----2--2--4----4----|--0--0--0--0--0--0--0--0--|
--2----2--2--2--2--2----|--1----1--1--3----3----|--1--1--1--0--1--1--1--0--|
--2----2--2--2--2--2----|--0----0--0--0----0----|--0--0--0--0--0--0--0--0--|
--2----2--2--2--2--2----|--2----2--2--4----4----|--2--2--2--0--2--2--2--0--|
------------------------|-----------------------|--3--3--3-----3--3--3-----|
------------------------|-----------------------|--------------------------|


                                                                                 
--0--0--0--0--0--0--0--0--|--0--0--0--0--0--0--0--0--|--0--0--0--0--0--0--0--0--|
--1--1--1--0--1--1--1--0--|--1--1--1--0--1--1--1--0--|--1--1--1--0--1--1--1--0--|
--0--0--0--0--0--0--0--0--|--0--0--0--0--0--0--0--0--|--0--0--0--0--0--0--0--0--|
--2--2--2--0--2--2--2--0--|--2--2--2--0--2--2--2--0--|--2--2--2--0--2--2--2--0--|
--3--3--3-----3--3--3-----|--3--3--3-----3--3--3-----|--3--3--3-----3--3--3-----|
--------------------------|--------------------------|--------------------------|


                                                                                 
--0--0--0--0--0--0--0--0--|--0--0--0--0--0--0--0--0--|--0--0--0--0--0--0--0--0--|
--1--1--1--0--1--1--1--0--|--1--1--1--0--1--1--1--0--|--1--1--1--0--1--1--1--0--|
--0--0--0--0--0--0--0--0--|--0--0--0--0--0--0--0--0--|--0--0--0--0--0--0--0--0--|
--2--2--2--0--2--2--2--0--|--2--2--2--0--2--2--2--0--|--2--2--2--0--2--2--2--0--|
--3--3--3-----3--3--3-----|--3--3--3-----3--3--3-----|--3--3--3-----3--3--3-----|
--------------------------|--------------------------|--------------------------|


                                                                        
--0----------------|--0--0--0--0--0--0--0----|--0--0--0--0--0--0--0----|
--1----------------|--1--1--1--1--1--1--1----|--0--0--0--0--0--0--0----|
--0----------------|--0--0--0--0--0--0--0----|--0--0--0--0--0--0--0----|
--2----------------|--2--2--2--2--2--2--2----|--0--0--0--0--0--0--0----|
--3----------------|--3--3--3--3--3--3--3----|--2--2--2--2--2--2--2----|
-------------------|-------------------------|--3--3--3--3--3--3--3----|


                                                                              
--0--0--0--0--0--0--0----|--0--0--0--0--0--0--0----|--0--0--0--0--0--0--0----|
--1--1--1--1--1--1--1----|--0--0--0--0--0--0--0----|--2--2--2--2--2--2--2----|
--0--0--0--0--0--0--0----|--0--0--0--0--0--0--0----|--2--2--2--2--2--2--2----|
--2--2--2--2--2--2--2----|--0--0--0--0--0--0--0----|--2--2--2--2--2--2--2----|
--3--3--3--3--3--3--3----|--2--2--2--2--2--2--2----|--0--0--0--0--0--0--0----|
-------------------------|--3--3--3--3--3--3--3----|-------------------------|


                                                                                     
--0--0--0--0--0--0--0----|--0----------------|------------------|-------------------|
--1--1--1--1--1--1--1----|--1----------------|------------------|--0----------------|
--0--0--0--0--0--0--0----|--0----------------|------------------|--0----------------|
--2--2--2--2--2--2--2----|--2----------------|------------------|--0----------------|
--3--3--3--3--3--3--3----|--3----------------|------------------|--2----------------|
-------------------------|-------------------|------------------|--3----------------|





Comments


Popular That Dog tabs & chords
Angel 1 Bass Tabs
Cowboy Hat 1 Bass Tabs
Gagged And Tied 1 Bass Tabs
Hawthorne 1 Bass Tabs
He Rocks 1 Bass Tabs
Silently 1 Bass Tabs
Everytime I Try Tabs
He's Kissing Christian Tabs
Michael Jordan Tabs
Raina Tabs


Song lyrics



↑ Back to top | Tablatures and chords are parodies/interpretations of the original songs. You may use it for private study, scholarship, research or language learning purposes only
© 2014 AZChords.com Contact us | Privacy policy | DMCA | Add/correct tabs | Request tabs | Top 50 tabs