» » »

That Dog, Holidays Tabs (ver.1)

Artists:  A B C D E F G H I J K L M N O P Q R S T U V W X Y Z # 

Holidays Tabs (ver.1)

That Dog Tabs
 Rating:
4/5 (4 votes)
Holidays lessons Tabs too difficult? Try these video lessons and learn fast
                that dog - holidays

I am only responsible for submitting this.


Guitar 1
Open E Tuning


E ||---------------------------------------|--------------------------------------|
B ||---------------------------------------|--------------------------------------|
G#||*--------------------------------------|--------------------------------------|
E ||*--------0--------0--------0-----------|--------0--------0--------0-----------|
B ||------0--------5--------7--------------|-----0--------5--------7--------------|
E ||---4--------5--------7--------9--7--5--|--4--------5--------7--------9--7--5--|


                                                                                
--------------------------------------|---------------------------------------||
--------------------------------------|---------------------------------------||
--------------------------------------|--------------------------------------*||
--------0--------0--------0-----------|--------0--------0--------0-----------*||
-----0--------5--------7--------------|-----0--------5--------7---------------||
--4--------5--------7--------9--7--5--|--4--------5--------7--------9--7--5---||


                                        3x                                       
----------------------------------------||--------------------------------------|
----------------------------------------||--------------------------------------|
*--------------------------------------*||--------------------------------------|
*--------0--------0--------0--------0--*||--------0--------0--------0--------0--|
------0--------3--------0--------0------||-----0--------0--------0--------0-----|
---2--------3--------5--------2---------||--4--------3--------0--------0--------|


                                        
--------------------------------------||
--------------------------------------||
--------------------------------------||
--------0--------0--------0--------0--||
-----0--------0--------0--------0-----||
--3--------2--------0--------0--------||

Guitar 2
Open E Tuning

   (I have only tabbed the first 4 bars of the verse.  Ad lib the rest)
E||----------------------------------|----------------------------------|
B||---------5----5--7----7--9--7--5--|--4--------4--5----------5--------|
G||*---------------------------------|-----------------4----4-----4--2--|
D||*---------------------------------|----------------------------------|
A||----------------------------------|----------------------------------|
E||----------------------------------|----------------------------------|


                                                                   
----------------------------------|------------------------------||
---------------------7------7--9--|--7---------------------------||
-----9----------------------------|---------6--4----------------*||
--6---------6--7--7---------------|-----------------------------*||
----------------------------------|------------------------------||
----------------------------------|------------------------------||


                                        3x                                       
---------0--------0--------0--------0---||--------0--------0--------0--------0--|
------0--------0--------0--------0------||-----0--------0--------0--------0-----|
*--2--------2--------2--------2--------*||--1--------0--------------------------|
*--------------------------------------*||--------------------2--------2--------|
----------------------------------------||--------------------------------------|
----------------------------------------||--------------------------------------|


                                        
--------0--------0--------0--------0--||
-----0--------0--------0--------0-----||
--0-----------------------------------||
-----------4--------2--------2--------||
--------------------------------------||
--------------------------------------||

Guitar 3
Open E Tuning

   (I have only tabbed the first 4 bars of the verse.  Ad lib the rest)
E||---------------------------|--4----------4--7----7--9--7--5--|
B||---------------------------|---------------------------------|
G||*--------------------------|---------------------------------|
D||*--------------------------|---------------------------------|
A||---------------------------|---------------------------------|
E||---------------------------|---------------------------------|


                                                                      
--4--5--4--2--4--2--5--4--5--4--5--4--|--0------------2-------------||
--------------------------------------|-----------------------------||
--------------------------------------|----------------------------*||
--------------------------------------|----------------------------*||
--------------------------------------|-----------------------------||
--------------------------------------|-----------------------------||


                                        3x                                       
------7--------7--------7--------7------||-----7--------7--------4--------4-----|
---7-----7--7-----7--7-----7--7-----7---||--9-----9--8-----8--5-----5--5-----5--|
*--------------------------------------*||--------------------------------------|
*--------------------------------------*||--------------------------------------|
----------------------------------------||--------------------------------------|
----------------------------------------||--------------------------------------|


                                        
-----7--------7--------4--------4-----||
--8-----8--7-----7--5-----5--5-----5--||
--------------------------------------||
--------------------------------------||
--------------------------------------||
--------------------------------------||
            
Submit corrections

comments powered by Disqus
↑ Back to top | That Dog Tabs for Holidays. Lyrics for acoustic guitar and electric guitar. Tablatures and chords are parodies/interpretations of the original songs. You may use it for private study, scholarship, research or language learning purposes only