>
 >
Hawthorne

Hawthorne Guitar Tabs

That Dog - Hawthorne chords, tabs, tablatures, lyrics

Guitar lessons | Add/correct | Request | Top 50 tabs Artists:  A B C D E F G H I J K L M N O P Q R S T U V W X Y Z 0-9

Hawthorne Guitar Tabs – That Dog

CD, Sheet music, Poster

Do you like Hawthorne? Share with your friends now
Tabs
that dog - hawthorne

I am only responsible for submitting this.


Guitar 1 (Acoustic)
Standard Tuning


E||--------------------------|--------------------------|--------------------------|
B||--------------------------|--------------------------|--------------------------|
G||--------------------------|--------------------------|--------------------------|
D||--------0-----------0-----|--------0-----------0-----|--------0-----------0-----|
A||-----2-----------2--------|-----2-----------2--------|-----2-----------2--------|
E||--3--------3--0--------0--|--3--------3--0--------0--|--3--------3--0--------0--|



-------------------------|--------------------------|--------------------------|
-------------------------|--------------------------|--------------------------|
-------------------------|--------------------------|--------------------------|
--------0----------------|--------0-----------0-----|--------0-----------0-----|
-----4-------------------|-----2-----------2--------|-----2-----------2--------|
--5----------------------|--3--------3--0--------0--|--3--------3--0--------0--|


                                                                                 
--------------------------|--------------------------|--------------------------|
--------------------------|--------------------------|--------------------------|
--------------------------|--------------------------|--------------------------|
--------0-----------0-----|--------0-----------0-----|--0--0--0--0--0--0--0--0--|
-----4-----------4--------|-----4-----------4--------|--7--7--7--7--7--7--7--4--|
--5--------5--0--------0--|--5--------5--0--------0--|--8--8--8--8--8--8--8--5--|


                                                                                  
-------------------------|----------------------------|--------------------------|
-------------------------|----------------------------|--------------------------|
-------------------------|----------------------------|--------------------------|
----0--0--0--0--0--0--0--|--0--0--0--0-0-0--0--0--0-0-|--0--0--0--0--0--0--0--0--|
----4--4--4--4--4--4--4--|--5--5--5--5-5-7--7--7--7-7-|--9--9--9--9--9--9--9--9--|
----5--5--5--5--5--5--5--|--3--3--3--3-3-5--5--5--5-5-|--7--7--7--7--7--7--7--7--|


                                                                              
--------------------------|-------------------------|-------3----------3-----|
--------------------------|-------------------------|-------3----------3-----|
--------------------------|-------------------------|-------0----------0-----|
--0--0--0--0--0--0--0--0--|----0--0--0--0--0--0--0--|--0----0--0--0----0--0--|
--7--7--7--7--7--7--7--4--|----4--4--4--4--4--4--4--|--2-------2--2-------2--|
--8--8--8--8--8--8--8--5--|----5--5--5--5--5--5--5--|--3-------3--0-------0--|


                                                                           
-------3----------3-----|-------3----------3-----|-------3----------3-----|
-------3----------3-----|-------3----------3-----|-------3----------3-----|
-------0----------0-----|-------0----------0-----|-------0----------0-----|
--0----0--0--0----0--0--|--0----0--0--0----0--0--|--0----0--0--0----0--0--|
--2-------2--2-------2--|--2-------2--2-------2--|--2-------2--2-------2--|
--3-------3--0-------0--|--3-------3--0-------0--|--3-------3--0-------0--|


                                                                           
-------3----------3-----|-------3----------3-----|-------3----------3-----|
-------3----------3-----|-------3----------3-----|-------3----------3-----|
-------0----------0-----|-------0----------0-----|-------0----------0-----|
--0----0--0--0----0--0--|--0----0--0--0----0--0--|--0----0--0--0----0--0--|
--2-------2--2-------2--|--2-------2--2-------2--|--2-------2--2-------2--|
--3-------3--0-------0--|--3-------3--0-------0--|--3-------3--0-------0--|


                                                                             
--------------------------|-------3----------3-----|-------3----------3-----|
--------------------------|-------3----------3-----|-------3----------3-----|
--------------------------|-------0----------0-----|-------0----------0-----|
--0--0--0--0--0--0--0--0--|--0----0--0--0----0--0--|--0----0--0--0----0--0--|
--4--4--4--4--4--4--4--4--|--2-------2--2-------2--|--2-------2--2-------2--|
--5--5--5--5--5--5--5--5--|--3-------3--0-------0--|--3-------3--0-------0--|


                                                                            
-------5----------5-----|-------5----------5----|--------------------------|
-------5----------5-----|-------5----------5----|--------------------------|
-------0----------0-----|-------0----------0----|--------------------------|
--0----0--0--0----0--0--|--0----0--0--0----0----|--0--0--0--0--0--0--0--0--|
--4-------4--4-------4--|--4-------4--4---------|--7--7--7--7--7--7--7--4--|
--5-------5--0-------0--|--5-------5--0---------|--8--8--8--8--8--8--8--5--|


                                                                                  
-------------------------|----------------------------|--------------------------|
-------------------------|----------------------------|--------------------------|
-------------------------|----------------------------|--------------------------|
----0--0--0--0--0--0--0--|--0--0--0--0-0-0--0--0--0-0-|--0--0--0--0--0--0--0--0--|
----4--4--4--4--4--4--4--|--5--5--5--5-5-7--7--7--7-7-|--9--9--9--9--9--9--9--9--|
----5--5--5--5--5--5--5--|--3--3--3--3-3-5--5--5--5-5-|--7--7--7--7--7--7--7--7--|


                                                                                  
--------------------------|-------------------------|----------------------------|
--------------------------|-------------------------|----------------------------|
--------------------------|-------------------------|----------------------------|
--0--0--0--0--0--0--0--0--|----0--0--0--0--0--0--0--|--0--0--0--0-0-0--0--0--0-0-|
--7--7--7--7--7--7--7--4--|----4--4--4--4--4--4--4--|--5--5--5--5-5-7--7--7--7-7-|
--8--8--8--8--8--8--8--5--|----5--5--5--5--5--5--5--|--3--3--3--3-3-5--5--5--5-5-|


                                                                                
--------------------------|--------------------------|-------------------------|
--------------------------|--------------------------|-------------------------|
--------------------------|--------------------------|-------------------------|
--0--0--0--0--0--0--0--0--|--0--0--0--0--0--0--0--0--|----0--0--0--0--0--0--0--|
--9--9--9--9--9--9--9--9--|--7--7--7--7--7--7--7--4--|----4--4--4--4--4--4--4--|
--7--7--7--7--7--7--7--7--|--8--8--8--8--8--8--8--5--|----5--5--5--5--5--5--5--|


                                                                           
-------3----------3-----|-------3----------3-----|-------3----------3-----|
-------3----------3-----|-------3----------3-----|-------3----------3-----|
-------0----------0-----|-------0----------0-----|-------0----------0-----|
--0----0--0--0----0--0--|--0----0--0--0----0--0--|--0----0--0--0----0--0--|
--2-------2--2-------2--|--2-------2--2-------2--|--2-------2--2-------2--|
--3-------3--0-------0--|--3-------3--0-------0--|--3-------3--0-------0--|


                                                                            
-------3-----------------|-------5----------5-----|-------5----------------|
-------3-----------------|-------5----------5-----|-------5----------------|
-------0-----------------|-------0----------0-----|-------0-----------0----|
--0----0--0--0--0--0--0--|--0----0--0--0----0--0--|--0----0--0--0--0--0----|
--2-------2--2--2--2--2--|--4-------4--4-------4--|--4-------4--4--4--4----|
--3-------3--0--0--3--0--|--5-------5--0-------0--|--5-------5--0--0--5----|


                                                                                  
--------------------------|-------------------------|----------------------------|
--------------------------|-------------------------|----------------------------|
--------------------------|-------------------------|----------------------------|
--0--0--0--0--0--0--0--0--|----0--0--0--0--0--0--0--|--0--0--0--0-0-0--0--0--0-0-|
--7--7--7--7--7--7--7--4--|----4--4--4--4--4--4--4--|--5--5--5--5-5-7--7--7--7-7-|
--8--8--8--8--8--8--8--5--|----5--5--5--5--5--5--5--|--3--3--3--3-3-5--5--5--5-5-|


                                                                                
--------------------------|--------------------------|-------------------------|
--------------------------|--------------------------|-------------------------|
--------------------------|--------------------------|-------------------------|
--0--0--0--0--0--0--0--0--|--0--0--0--0--0--0--0--0--|----0--0--0--0--0--0--0--|
--9--9--9--9--9--9--9--9--|--7--7--7--7--7--7--7--4--|----4--4--4--4--4--4--4--|
--7--7--7--7--7--7--7--7--|--8--8--8--8--8--8--8--5--|----5--5--5--5--5--5--5--|


                                                                                      
----------------------|---------------------|--------------------|-------------------|
----------------------|---------------------|--------------------|-------------------|
----------------------|---------------------|--4--------------5--|--------------7----|
--0------0--0------0--|--0------0--0--------|--------------------|-------------------|
--2------2--2------2--|--2------2--2--------|--------------------|-------------------|
--3------3--0------0--|--3------3--0--------|--------------------|-------------------|


                                                                                         
-----------------------|-----------------------|--------------------|-------------------|
-----------------------|-----------------------|--------------------|-------------------|
--4----5--7----5----4--|--6----4--4----5----0--|--4--------------5--|--------------7----|
-----------------------|-----------------------|--------------------|-------------------|
-----------------------|-----------------------|--------------------|-------------------|
-----------------------|-----------------------|--------------------|-------------------|


                                                                           
----------------------|------------------------|--------------------------|
----------------------|------------------------|--------------------------|
--4----7----6------4--|--7--6----6-------------|--------------------------|
----------------------|-------------0--0--0----|--0--0--0--0--0--0--0--0--|
----------------------|-------------4--4--4----|--7--7--7--7--7--7--7--4--|
----------------------|-------------5--5--5----|--8--8--8--8--8--8--8--5--|


                                                                                  
-------------------------|----------------------------|--------------------------|
-------------------------|----------------------------|--------------------------|
-------------------------|----------------------------|--------------------------|
----0--0--0--0--0--0--0--|--0--0--0--0-0-0--0--0--0-0-|--0--0--0--0--0--0--0--0--|
----4--4--4--4--4--4--4--|--5--5--5--5-5-7--7--7--7-7-|--9--9--9--9--9--9--9--9--|
----5--5--5--5--5--5--5--|--3--3--3--3-3-5--5--5--5-5-|--7--7--7--7--7--7--7--7--|


                                                                                  
--------------------------|-------------------------|----------------------------|
--------------------------|-------------------------|----------------------------|
--------------------------|-------------------------|----------------------------|
--0--0--0--0--0--0--0--0--|----0--0--0--0--0--0--0--|--0--0--0--0-0-0--0--0--0-0-|
--7--7--7--7--7--7--7--4--|----4--4--4--4--4--4--4--|--5--5--5--5-5-7--7--7--7-7-|
--8--8--8--8--8--8--8--5--|----5--5--5--5--5--5--5--|--3--3--3--3-3-5--5--5--5-5-|


                                                                                
--------------------------|--------------------------|-------------------------|
--------------------------|--------------------------|-------------------------|
--------------------------|--------------------------|-------------------------|
--0--0--0--0--0--0--0--0--|--0--0--0--0--0--0--0--0--|----0--0--0--0--0--0--0--|
--9--9--9--9--9--9--9--9--|--7--7--7--7--7--7--7--4--|----4--4--4--4--4--4--4--|
--7--7--7--7--7--7--7--7--|--8--8--8--8--8--8--8--5--|----5--5--5--5--5--5--5--|


                                                                                   
----------------------------|--------------------------|--------------------------|
----------------------------|--------------------------|--------------------------|
----------------------------|--------------------------|--------------------------|
--0--0--0--0-0-0--0--0--0-0-|--0--0--0--0--0--0--0--0--|--0--0--0--0--0--0--0--0--|
--5--5--5--5-5-7--7--7--7-7-|--9--9--9--9--9--9--9--9--|--7--7--7--7--7--7--7--4--|
--3--3--3--3-3-5--5--5--5-5-|--7--7--7--7--7--7--7--7--|--8--8--8--8--8--8--8--5--|


                                                                            
-------------------------|-------3----------3-----|-------3----------3-----|
-------------------------|-------3----------3-----|-------3----------3-----|
-------------------------|-------0----------0-----|-------0----------0-----|
----0--0--0--0--0--0--0--|--0----0--0--0----0--0--|--0----0--0--0----0--0--|
----4--4--4--4--4--4--4--|--2-------2--2-------2--|--2-------2--2-------2--|
----5--5--5--5--5--5--5--|--3-------3--0-------0--|--3-------3--0-------0--|


                                                                           
-------3----------3-----|-------3----------3-----|-------3----------3-----|
-------3----------3-----|-------3----------3-----|-------3----------3-----|
-------0----------0-----|-------0----------0-----|-------0----------0-----|
--0----0--0--0----0--0--|--0----0--0--0----0--0--|--0----0--0--0----0--0--|
--2-------2--2-------2--|--2-------2--2-------2--|--2-------2--2-------2--|
--3-------3--0-------0--|--3-------3--0-------0--|--3-------3--0-------0--|


                                                                           
-------3----------3-----|-------3----------3-----|-------3----------3-----|
-------3----------3-----|-------3----------3-----|-------3----------3-----|
-------0----------0-----|-------0----------0-----|-------0----------0-----|
--0----0--0--0----0--0--|--0----0--0--0----0--0--|--0----0--0--0----0--0--|
--2-------2--2-------2--|--2-------2--2-------2--|--2-------2--2-------2--|
--3-------3--0-------0--|--3-------3--0-------0--|--3-------3--0-------0--|


                                             
-------3---------------|--3----------------||
-------3---------------|--3----------------||
-------0---------------|--0----------------||
--0----0--0--0----0----|--0----------------||
--2-------2--2----2----|--2----------------||
--3-------3--0----0----|--3----------------||



Guitar 2
Standard Tuning


Listen and play along



E||------------------|------------------|------------------|----------------------|
B||------------------|------------------|------------------|----------------------|
G||------------------|------------------|------------------|----------------------|
D||------------------|------------------|------------------|----------------------|
A||------------------|------------------|------------------|----------------------|
E||------------------|------------------|------------------|----------------------|


                                                                            
------------------|------------------|------------------|------------------|
------------------|------------------|------------------|------------------|
------------------|------------------|------------------|------------------|
------------------|------------------|------------------|------------------|
------------------|------------------|------------------|------------------|
------------------|------------------|------------------|------------------|


                                                                            
------------------|------------------|------------------|------------------|
------------------|------------------|------------------|------------------|
------------------|------------------|------------------|------------------|
------------------|------------------|------------------|------------------|
------------------|------------------|------------------|------------------|
------------------|------------------|------------------|------------------|


                                                                                        
------------------|------------------|-------3----------3-----|-------3----------3-----|
------------------|------------------|-------3----------3-----|-------3----------3-----|
------------------|------------------|-------0----------0-----|-------0----------0-----|
------------------|------------------|--0----0--0--0----0--0--|--0----0--0--0----0--0--|
------------------|------------------|--2-------2--2-------2--|--2-------2--2-------2--|
------------------|------------------|--3-------3--0-------0--|--3-------3--0-------0--|


                                                                           
-------3----------3-----|-------3----------3-----|-------3----------3-----|
-------3----------3-----|-------3----------3-----|-------3----------3-----|
-------0----------0-----|-------0----------0-----|-------0----------0-----|
--0----0--0--0----0--0--|--0----0--0--0----0--0--|--0----0--0--0----0--0--|
--2-------2--2-------2--|--2-------2--2-------2--|--2-------2--2-------2--|
--3-------3--0-------0--|--3-------3--0-------0--|--3-------3--0-------0--|


                                                                             
-------3----------3-----|-------3----------3-----|--------------------------|
-------3----------3-----|-------3----------3-----|--------------------------|
-------0----------0-----|-------0----------0-----|--------------------------|
--0----0--0--0----0--0--|--0----0--0--0----0--0--|--0--0--0--0--0--0--0--0--|
--2-------2--2-------2--|--2-------2--2-------2--|--4--4--4--4--4--4--4--4--|
--3-------3--0-------0--|--3-------3--0-------0--|--5--5--5--5--5--5--5--5--|


                                                                           
-------3----------3-----|-------3----------3-----|-------5----------5-----|
-------3----------3-----|-------3----------3-----|-------5----------5-----|
-------0----------0-----|-------0----------0-----|-------0----------0-----|
--0----0--0--0----0--0--|--0----0--0--0----0--0--|--0----0--0--0----0--0--|
--2-------2--2-------2--|--2-------2--2-------2--|--4-------4--4-------4--|
--3-------3--0-------0--|--3-------3--0-------0--|--5-------5--0-------0--|


                                                                             
-------5----------5----|--------------------------|-------------------------|
-------5----------5----|--------------------------|-------------------------|
-------0----------0----|--------------------------|-------------------------|
--0----0--0--0----0----|--0--0--0--0--0--0--0--0--|----0--0--0--0--0--0--0--|
--4-------4--4---------|--7--7--7--7--7--7--7--4--|----4--4--4--4--4--4--4--|
--5-------5--0---------|--8--8--8--8--8--8--8--5--|----5--5--5--5--5--5--5--|


                                                                                   
----------------------------|--------------------------|--------------------------|
----------------------------|--------------------------|--------------------------|
----------------------------|--------------------------|--------------------------|
--0--0--0--0-0-0--0--0--0-0-|--0--0--0--0--0--0--0--0--|--0--0--0--0--0--0--0--0--|
--5--5--5--5-5-7--7--7--7-7-|--9--9--9--9--9--9--9--9--|--7--7--7--7--7--7--7--4--|
--3--3--3--3-3-5--5--5--5-5-|--7--7--7--7--7--7--7--7--|--8--8--8--8--8--8--8--5--|


                                                                                  
-------------------------|----------------------------|--------------------------|
-------------------------|----------------------------|--------------------------|
-------------------------|----------------------------|--------------------------|
----0--0--0--0--0--0--0--|--0--0--0--0-0-0--0--0--0-0-|--0--0--0--0--0--0--0--0--|
----4--4--4--4--4--4--4--|--5--5--5--5-5-7--7--7--7-7-|--9--9--9--9--9--9--9--9--|
----5--5--5--5--5--5--5--|--3--3--3--3-3-5--5--5--5-5-|--7--7--7--7--7--7--7--7--|


                                                                              
--------------------------|-------------------------|-------3----------3-----|
--------------------------|-------------------------|-------3----------3-----|
--------------------------|-------------------------|-------0----------0-----|
--0--0--0--0--0--0--0--0--|----0--0--0--0--0--0--0--|--0----0--0--0----0--0--|
--7--7--7--7--7--7--7--4--|----4--4--4--4--4--4--4--|--2-------2--2-------2--|
--8--8--8--8--8--8--8--5--|----5--5--5--5--5--5--5--|--3-------3--0-------0--|


                                                                            
-------3----------3-----|-------3----------3-----|-------3-----------------|
-------3----------3-----|-------3----------3-----|-------3-----------------|
-------0----------0-----|-------0----------0-----|-------0-----------------|
--0----0--0--0----0--0--|--0----0--0--0----0--0--|--0----0--0--0--0--0--0--|
--2-------2--2-------2--|--2-------2--2-------2--|--2-------2--2--2--2--2--|
--3-------3--0-------0--|--3-------3--0-------0--|--3-------3--0--0--3--0--|


                                                                             
-------5----------5-----|-------5----------------|--------------------------|
-------5----------5-----|-------5----------------|--------------------------|
-------0----------0-----|-------0-----------0----|--------------------------|
--0----0--0--0----0--0--|--0----0--0--0--0--0----|--0--0--0--0--0--0--0--0--|
--4-------4--4-------4--|--4-------4--4--4--4----|--7--7--7--7--7--7--7--4--|
--5-------5--0-------0--|--5-------5--0--0--5----|--8--8--8--8--8--8--8--5--|


                                                                                  
-------------------------|----------------------------|--------------------------|
-------------------------|----------------------------|--------------------------|
-------------------------|----------------------------|--------------------------|
----0--0--0--0--0--0--0--|--0--0--0--0-0-0--0--0--0-0-|--0--0--0--0--0--0--0--0--|
----4--4--4--4--4--4--4--|--5--5--5--5-5-7--7--7--7-7-|--9--9--9--9--9--9--9--9--|
----5--5--5--5--5--5--5--|--3--3--3--3-3-5--5--5--5-5-|--7--7--7--7--7--7--7--7--|


                                                                            
--------------------------|-------------------------|----------------------|
--------------------------|-------------------------|----------------------|
--------------------------|-------------------------|----------------------|
--0--0--0--0--0--0--0--0--|----0--0--0--0--0--0--0--|--0------0--0------0--|
--7--7--7--7--7--6--5--4--|----4--4--4--4--4--4--4--|--2------2--2------2--|
--8--8--8--8--8--7--6--5--|----5--5--5--5--5--5--5--|--3------3--0------0--|


                                                                                       
---------------------|--------------------|-------------------|-----------------------|
---------------------|--------------------|-------------------|-----------------------|
---------------------|--4--------------5--|--------------7----|--4----5--7----5----4--|
--0------0--0--------|--------------------|-------------------|-----------------------|
--2------2--2--------|--------------------|-------------------|-----------------------|
--3------3--0--------|--------------------|-------------------|-----------------------|


                                                                                        
-----------------------|--------------------|-------------------|----------------------|
-----------------------|--------------------|-------------------|----------------------|
--6----4--4----5----0--|--4--------------5--|--------------7----|--4----7----6------4--|
-----------------------|--------------------|-------------------|----------------------|
-----------------------|--------------------|-------------------|----------------------|
-----------------------|--------------------|-------------------|----------------------|


                                                                              
------------------------|--------------------------|-------------------------|
------------------------|--------------------------|-------------------------|
--7--6----6-------------|--------------------------|-------------------------|
-------------0--0--0----|--0--0--0--0--0--0--0--0--|----0--0--0--0--0--0--0--|
-------------4--4--4----|--7--7--7--7--7--7--7--4--|----4--4--4--4--4--4--4--|
-------------5--5--5----|--8--8--8--8--8--8--8--5--|----5--5--5--5--5--5--5--|


                                                                                   
----------------------------|--------------------------|--------------------------|
----------------------------|--------------------------|--------------------------|
----------------------------|--------------------------|--------------------------|
--0--0--0--0-0-0--0--0--0-0-|--0--0--0--0--0--0--0--0--|--0--0--0--0--0--0--0--0--|
--5--5--5--5-5-7--7--7--7-7-|--9--9--9--9--9--9--9--9--|--7--7--7--7--7--7--7--4--|
--3--3--3--3-3-5--5--5--5-5-|--7--7--7--7--7--7--7--7--|--8--8--8--8--8--8--8--5--|


                                                                                  
-------------------------|----------------------------|--------------------------|
-------------------------|----------------------------|--------------------------|
-------------------------|----------------------------|--------------------------|
----0--0--0--0--0--0--0--|--0--0--0--0-0-0--0--0--0-0-|--0--0--0--0--0--0--0--0--|
----4--4--4--4--4--4--4--|--5--5--5--5-5-7--7--7--7-7-|--9--9--9--9--9--9--9--9--|
----5--5--5--5--5--5--5--|--3--3--3--3-3-5--5--5--5-5-|--7--7--7--7--7--7--7--7--|


                                                                                  
--------------------------|-------------------------|----------------------------|
--------------------------|-------------------------|----------------------------|
--------------------------|-------------------------|----------------------------|
--0--0--0--0--0--0--0--0--|----0--0--0--0--0--0--0--|--0--0--0--0-0-0--0--0--0-0-|
--7--7--7--7--7--7--7--4--|----4--4--4--4--4--4--4--|--5--5--5--5-5-7--7--7--7-7-|
--8--8--8--8--8--8--8--5--|----5--5--5--5--5--5--5--|--3--3--3--3-3-5--5--5--5-5-|


                                                                                
--------------------------|--------------------------|-------------------------|
--------------------------|--------------------------|-------------------------|
--------------------------|--------------------------|-------------------------|
--0--0--0--0--0--0--0--0--|--0--0--0--0--0--0--0--0--|----0--0--0--0--0--0--0--|
--9--9--9--9--9--9--9--9--|--7--7--7--7--7--7--7--4--|----4--4--4--4--4--4--4--|
--7--7--7--7--7--7--7--7--|--8--8--8--8--8--8--8--5--|----5--5--5--5--5--5--5--|


                                                                             
-------------------|------------------|------------------|------------------|
-------------------|------------------|------------------|------------------|
-------------------|------------------|------------------|------------------|
--0----------------|------------------|------------------|------------------|
--2----------------|------------------|------------------|------------------|
--3----------------|------------------|------------------|------------------|


                                                                            
------------------|------------------|------------------|------------------|
------------------|------------------|------------------|------------------|
------------------|------------------|------------------|------------------|
------------------|------------------|------------------|------------------|
------------------|------------------|------------------|------------------|
------------------|------------------|------------------|------------------|





Comments


Popular That Dog tabs & chords
Cowboy Hat 1 Bass Tabs
Everytime I Try 1 Bass Tabs
Gagged And Tied Bass Tabs
Hawthorne 1 Bass Tabs
Old Timer 1 Bass Tabs
To Keep Me 1 Bass Tabs
Long Island Chords
He Rocks Tabs
I'm Gonna See You Tabs
Raina Tabs


Song lyrics



↑ Back to top | Tablatures and chords are parodies/interpretations of the original songs. You may use it for private study, scholarship, research or language learning purposes only
© 2014 AZChords.com Contact us | Privacy policy | DMCA | Add/correct tabs | Request tabs | Top 50 tabs