>
 >
Cowboy Hat

Cowboy Hat Guitar Tabs

That Dog - Cowboy Hat chords, tabs, tablatures, lyrics

Guitar lessons | Add/correct | Request | Top 50 tabs Artists:  A B C D E F G H I J K L M N O P Q R S T U V W X Y Z 0-9

Cowboy Hat Guitar Tabs – That Dog

CD, Sheet music, Poster

Do you like Cowboy Hat? Share with your friends now
Tabs
that dog - cowboy hat

I am only responsible for submitting this.


Guitar 1
Standard Tuning: Capo on II


E||--0--0--0--0--0--0--0--0--0--0--0--0--|--0--0--0--0--0--0--0--0--0--0--0--0--|
B||--4--4--4--4--4--4--5--5--5--5--5--5--|--2--2--2--2--2--2--2--2--2--2--2--2--|
G||--5--5--5--5--5--5--6--6--6--6--6--6--|--2--2--2--2--2--2--3--3--3--3--3--3--|
D||--------------------------------------|--------------------------------------|
A||--------------------------------------|--------------------------------------|
E||--------------------------------------|--------------------------------------|


                                                                              
--0--0--0--0--0--0--0--0--0--0--0--0--|--0--0--0--0--0--0--0--0--0--0--0--0--|
--4--4--4--4--4--4--5--5--5--5--5--5--|--2--2--2--2--2--2--2--2--2--2--2--2--|
--5--5--5--5--5--5--6--6--6--6--6--6--|--2--2--2--2--2--2--3--3--3--3--3--3--|
--------------------------------------|--------------------------------------|
--------------------------------------|--------------------------------------|
--------------------------------------|--------------------------------------|


                                                                                  
|---0--0--0--0--0--0--0--0--0--0--0--0--|--0--0--0--0--0--0--0--0--0--0--0--0---||
|---4--4--4--4--4--4--5--5--5--5--5--5--|--2--2--2--2--2--2--2--2--2--2--2--2---||
|*--5--5--5--5--5--5--6--6--6--6--6--6--|--2--2--2--2--2--2--3--3--3--3--3--3--*||
|*--------------------------------------|--------------------------------------*||
|---------------------------------------|---------------------------------------||
|---------------------------------------|---------------------------------------||


                                                                              
--0--0--0--0--0--0--0--0--0--0--0--0--|--0--0--0--0--0--0--0--0--0--0--0--0--|
--4--4--4--4--4--4--5--5--5--5--5--5--|--2--2--2--2--2--2--2--2--2--2--2--2--|
--5--5--5--5--5--5--6--6--6--6--6--6--|--2--2--2--2--2--2--3--3--3--3--3--3--|
--------------------------------------|--------------------------------------|
--------------------------------------|--------------------------------------|
--------------------------------------|--------------------------------------|


                                         4x                                       
|----------------------------------------||--0--0--0--0--0--0--0--0--0--0--0--0--|
|----------------------------------------||--4--4--4--4--4--4--5--5--5--5--5--5--|
|*--------------------------------------*||--5--5--5--5--5--5--6--6--6--6--6--6--|
|*--2--2--2/-7--7--7\-4--4--4/-7--7--7--*||--------------------------------------|
|---2--2--2/-7--7--7\-4--4--4/-7--7--7---||--------------------------------------|
|---0--0--0/-5--5--5\-2--2--2/-5--5--5---||--------------------------------------|


                                                                              
--0--0--0--0--0--0--0--0--0--0--0--0--|--0--0--0--0--0--0--0--0--0--0--0--0--|
--2--2--2--2--2--2--2--2--2--2--2--2--|--4--4--4--4--4--4--5--5--5--5--5--5--|
--2--2--2--2--2--2--3--3--3--3--3--3--|--5--5--5--5--5--5--6--6--6--6--6--6--|
--------------------------------------|--------------------------------------|
--------------------------------------|--------------------------------------|
--------------------------------------|--------------------------------------|


                                                                                            
--0--0--0--0--0--0--0--0--0--0--0--0--||---0---0---0---0---0---0---0---0---0---0---0---0---|
--2--2--2--2--2--2--2--2--2--2--2--2--||---12--12--12--12--12--12--12--12--12--12--12--12--|
--2--2--2--2--2--2--3--3--3--3--3--3--||*--------------------------------------------------|
--------------------------------------||*--------------------------------------------------|
--------------------------------------||---------------------------------------------------|
--------------------------------------||---------------------------------------------------|


                                                     
--0---0---0---0---0---0---0---0---0---0---0---0----||
--10--10--10--10--10--10--11--11--11--11--11--11---||
--------------------------------------------------*||
--------------------------------------------------*||
---------------------------------------------------||
---------------------------------------------------||


                                                   
--0---0---0---0---0---0---0---0---0---0---0---0---|
--12--12--12--12--12--12--12--12--12--12--12--12--|
--------------------------------------------------|
--------------------------------------------------|
--------------------------------------------------|
--------------------------------------------------|


                                                   
--0---0---0---0---0---0---0---0---0---0---0---0---|
--14--14--14--16--16--17--11--11--11--11--11--11--|
--------------------------------------------------|
--------------------------------------------------|
--------------------------------------------------|
--------------------------------------------------|


                                         4x                                       
|----------------------------------------||--0--0--0--0--0--0--0--0--0--0--0--0--|
|----------------------------------------||--4--4--4--4--4--4--5--5--5--5--5--5--|
|*--------------------------------------*||--5--5--5--5--5--5--6--6--6--6--6--6--|
|*--2--2--2/-7--7--7\-4--4--4/-7--7--7--*||--------------------------------------|
|---2--2--2/-7--7--7\-4--4--4/-7--7--7---||--------------------------------------|
|---0--0--0/-5--5--5\-2--2--2/-5--5--5---||--------------------------------------|


                                                                              
--0--0--0--0--0--0--0--0--0--0--0--0--|--0--0--0--0--0--0--0--0--0--0--0--0--|
--2--2--2--2--2--2--2--2--2--2--2--2--|--4--4--4--4--4--4--5--5--5--5--5--5--|
--2--2--2--2--2--2--3--3--3--3--3--3--|--5--5--5--5--5--5--6--6--6--6--6--6--|
--------------------------------------|--------------------------------------|
--------------------------------------|--------------------------------------|
--------------------------------------|--------------------------------------|


                                                                              
--0--0--0--0--0--0--0--0--0--0--0--0--|--0--0--0--0--0--0--0--0--0--0--0--0--|
--2--2--2--2--2--2--2--2--2--2--2--2--|--4--4--4--4--4--4--5--5--5--5--5--5--|
--2--2--2--2--2--2--3--3--3--3--3--3--|--5--5--5--5--5--5--6--6--6--6--6--6--|
--------------------------------------|--------------------------------------|
--------------------------------------|--------------------------------------|
--------------------------------------|--------------------------------------|


                                                                              
--0--0--0--0--0--0--0--0--0--0--0--0--|--0--0--0--0--0--0--0--0--0--0--0--0--|
--2--2--2--2--2--2--2--2--2--2--2--2--|--4--4--4--4--4--4--5--5--5--5--5--5--|
--2--2--2--2--2--2--3--3--3--3--3--3--|--5--5--5--5--5--5--6--6--6--6--6--6--|
--------------------------------------|--------------------------------------|
--------------------------------------|--------------------------------------|
--------------------------------------|--------------------------------------|


                                                                                    
--0------------0------------|----------0--0--0--0--0---0--0--0--0--0---0--0--0--0--|
--2------------2------------|----------10-10-10-10-10--10-10-10-10-10--10-10-10-10-|
--2------------3------------|----------9--9--9--9--9---9--9--9--9--9---9--9--9--9--|
----------------------------|------------------------------------------------------|
----------------------------|------------------------------------------------------|
----------------------------|------------------------------------------------------|


                                                                   
--0---0--0--0--0--0---0--0--0--0--0---0--0--0--0--0---0--0--0--0--|
--10--10-10-10-10-10--10-10-10-10-10--10-10-10-10-10--10-10-10-10-|
--9---9--9--9--9--9---9--9--9--9--9---9--9--9--9--9---9--9--9--9--|


                                                                   
--0---0--0--0--0--0---0--0--0--0--0---0--0--0--0--0---0--0--0--0--|
--10--10-10-10-10-10--10-10-10-10-10--10-10-10-10-10--10-10-10-10-|
--9---9--9--9--9--9---9--9--9--9--9---9--9--9--9--9---9--9--9--9--|


                                                                   
--0---0--0--0--0--0---0--0--0--0--0---0--0--0--0--0---0--0--0--0--|
--10--10-10-10-10-10--10-10-10-10-10--10-10-10-10-10--10-10-10-10-|
--9---9--9--9--9--9---9--9--9--9--9---9--9--9--9--9---9--9--9--9--|


                                                                     4x
|---0---0--0--0--0--0---0--0--0--0--0---0--0--0--0--0---0--0--0--0---||
|---10--10-10-10-10-10--10-10-10-10-10--10-10-10-10-10--10-10-10-10--||
|*--9---9--9--9--9--9---9--9--9--9--9---9--9--9--9--9---9--9--9--9--*||
|*------------------------------------------------------------------*||
|--------------------------------------------------------------------||
|--------------------------------------------------------------------||


                                                                      
---0---0--0--0--0--0---0--0--0--0--0---0--0--0--0--0---0--0--0--0---||
---10--10-10-10-10-10--10-10-10-10-10--10-10-10-10-10--10-10-10-10--||
*--9---9--9--9--9--9---9--9--9--9--9---9--9--9--9--9---9--9--9--9--*||
*------------------------------------------------------------------*||


                                                                   
--0---0--0--0--0--0---0--0--0--0--0---0--0--0--0--0---0--0--0--0--|
--10--10-10-10-10-10--10-10-10-10-10--10-10-10-10-10--10-10-10-10-|
--9---9--9--9--9--9---9--9--9--9--9---9--9--9--9--9---9--9--9--9--|


                                                                   
--0---0--0--0--0--0---0--0--0--0--0---0--0--0--0--0---0--0--0--0--|
--10--10-10-10-10-10--10-10-10-10-10--10-10-10-10-10--10-10-10-10-|
--9---9--9--9--9--9---9--9--9--9--9---9--9--9--9--9---9--9--9--9--|


                                                                                             
------------------------------|------------------------------|------------------------------|
------------------------------|------------------------------|------------------------------|
------------------------------|------------------------------|------------------------------|
------------------------------|------------------------------|------------------------------|
--2------7------4------7------|--2------7------4------3------|--2------7------4------7------|
--0------5------2------5------|--0------5------2------1------|--0------5------2------5------|


                                                                
------------------------------||-------------------------------|
------------------------------||-------------------------------|
------------------------------||*------------------------------|
------------------------------||*------------------------------|
--2------7------4------3------||---2------7------4------7------|
--0------5------2------1------||---0------5------2------5------|


Fade out...
-------------------------------||
-------------------------------||
------------------------------*||
------------------------------*||
--2------7------4------3-------||
--0------5------2------1-------||


Guitar 2
Standard Tuning: Capo on II


Listen and play along



E||--------------------------|--------------------------|--------------------------|
B||--------------------------|--------------------------|--------------------------|
G||--------------------------|--------------------------|--------------------------|
D||--------------------------|--------------------------|--------------------------|
A||--------------------------|--------------------------|--------------------------|
E||--------------------------|--------------------------|--------------------------|


                                                                                     
--------------------------||---------------------------|---------------------------||
--------------------------||---------------------------|---------------------------||
--------------------------||*--------------------------|--------------------------*||
--------------------------||*--------------------------|--------------------------*||
--------------------------||---------------------------|---------------------------||
--------------------------||---------------------------|---------------------------||


                                                                                       4x
--------------------------|--------------------------||--------------------------------||
--------------------------|--------------------------||----------0-------------0-------||
--------------------------|--------------------------||*--1-------------2-------------*||
--------------------------|--------------------------||*------------------------------*||
--------------------------|--------------------------||--------------------------------||
--------------------------|--------------------------||--------------------------------||


                                                                                 
--------------------------|--------------------------|--------------------------|
--------------------------|--------------------------|--------------------------|
--------------------------|--------------------------|--------------------------|
--------------------------|--------------------------|--------------------------|
--------------------------|--------------------------|--------------------------|
--------------------------|--------------------------|--------------------------|


                                                                                     
--------------------------||---------------------------|---------------------------||
--------------------------||---------------------------|---------------------------||
--------------------------||*--------------------------|--------------------------*||
--------------------------||*--------------------------|--------------------------*||
--------------------------||---------------------------|---------------------------||
--------------------------||---------------------------|---------------------------||


                                                                                       4x
--------------------------|--------------------------||--------------------------------||
--------------------------|--------------------------||----------0-------------0-------||
--------------------------|--------------------------||*--1-------------2-------------*||
--------------------------|--------------------------||*------------------------------*||
--------------------------|--------------------------||--------------------------------||
--------------------------|--------------------------||--------------------------------||


                                                                         
--------------------------------------|---------------------------------|
--12----12--10----10--9----9--7----7--|--5--4--5--5--4--5--7------------|
--------------------------------------|---------------------------------|
--------------------------------------|---------------------------------|
--------------------------------------|---------------------------------|
--------------------------------------|---------------------------------|


                                                                         
--------------------------------------|---------------------------------|
--12----12--10----10--9----9--7----7--|--5--4--5--5--4--5--7------------|
--------------------------------------|---------------------------------|
--------------------------------------|---------------------------------|
--------------------------------------|---------------------------------|
--------------------------------------|---------------------------------|


                                                                              
----------------------------------------|------------------------------------|
--12----12--10----10--14----14--9----9--|--10--9--10--10--9--10--------------|
----------------------------------------|------------------------------------|
----------------------------------------|------------------------------------|
----------------------------------------|------------------------------------|
----------------------------------------|------------------------------------|


                                                                    
-------------------------------------|-----------------------------|
--12----12--10----10--10----9--------|-----------------------------|
-------------------------------------|-----------------------1-----|
-------------------------------------|--------------------4-----4--|
-------------------------------------|-----------------------------|
-------------------------------------|-----------------------------|


                                                                              
-----0--------0--------0--------0-----|-----0--------0--------0--------0-----|
--------0--------0--------0--------0--|--------0--------0--------0--------0--|
--------------------------------------|--------------------------------------|
--2--------7--------4--------7--------|--2--------7--------4--------7--------|
--2--------7--------4--------7--------|--2--------7--------4--------7--------|
--0--------5--------2--------5--------|--0--------5--------2--------5--------|


                                                                              
-----0--------0--------0--------0-----|-----0--------0--------0--------0-----|
--------0--------0--------0--------0--|--------0--------0--------0--------0--|
--------------------------------------|--------------------------------------|
--2--------7--------4--------7--------|--2--------7--------4--------7--------|
--2--------7--------4--------7--------|--2--------7--------4--------7--------|
--0--------5--------2--------5--------|--0--------5--------2--------5--------|


                                         4x                                          
|------0--------0--------0--------0------||------0--------0--------0--------0------||
|---------0--------0--------0--------0---||---------0--------0--------0--------0---||
|*--------------------------------------*||*--------------------------------------*||
|*--2--------7--------4--------7--------*||*--2--------7--------4--------7--------*||
|---2--------7--------4--------7---------||---2--------7--------4--------7---------||
|---0--------5--------2--------5---------||---0--------5--------2--------5---------||


                                                                              
-----0--------0--------0--------0-----|-----0--------0--------0--------0-----|
--------0--------0--------0--------0--|--------0--------0--------0--------0--|
--------------------------------------|--------------------------------------|
--2--------7--------4--------7--------|--2--------7--------4--------7--------|
--2--------7--------4--------7--------|--2--------7--------4--------7--------|
--0--------5--------2--------5--------|--0--------5--------2--------5--------|


                                                                             
-------------------|------------------|------------------|------------------|
-------------------|------------------|------------------|------------------|
-------------------|------------------|------------------|------------------|
--2----------------|------------------|------------------|------------------|
--2----------------|------------------|------------------|------------------|
--0----------------|------------------|------------------|------------------|


Fade out...
|---------------------------|---------------------------||
|---------------------------|---------------------------||
|*--------------------------|--------------------------*||
|*--------------------------|--------------------------*||
|---------------------------|---------------------------||
|---------------------------|---------------------------||





Comments


Popular That Dog tabs & chords
I'm Gonna See You 1 Bass Tabs
Minneapolis 1 Bass Tabs
Never Say Never 1 Bass Tabs
To Keep Me 1 Bass Tabs
He Rocks Tabs
He's Kissing Christian Tabs
Holidays Tabs
Ms. Wrong Tabs
Rock Star Tabs
Long Island Ukulele


Song lyrics



↑ Back to top | Tablatures and chords are parodies/interpretations of the original songs. You may use it for private study, scholarship, research or language learning purposes only
© 2014 AZChords.com Contact us | Privacy policy | DMCA | Add/correct tabs | Request tabs | Top 50 tabs