» » »

Being With You Bass tabs (ver.1)

Artists:  A B C D E F G H I J K L M N O P Q R S T U V W X Y Z # 

Being With You Bass tabs (ver.1)

That Dog
Rating:
0/5 (0 votes)

Tabs too difficult? Try these video lessons and learn fast.
                that dog.
being with you


INTRO
G|--------------------------------------------------------------|
D|--------------------------------------------------------------|
A|--------------------------------------------------------------|x2
E|-5-5-5-5-5-5-5-5-/9-9-9-9-9-9-9-9-\2-2-2-2-2-2-2-/5-5-5-4-5-4-|

VERSE
G|---------------------------------|
D|---------------------------------|
A|---------------------------------| (repeat til chorus)
E|-5--5-5--/9--9-9--2--2-2--2--2-2-|

the 6th time through in the first verse,
there is this little variation
G|----------------------------------|
D|----------------------------------|
A|----------------------------------|
E|-5--5-5-/9--9-9--2--2-2--2-0--2-2-|

CHORUS
G|-----------------------------|
D|-----------------------------|
A|-----------------------------| repeat
E|-0-0-0-5-5-0-2-2-2-2-2-2-2-2-|

SECOND VERSE VARIATION ("it's just like being with you")
G|--------------------------------|
D|--------------------------------|
A|--------------------------------|x2
E|-5--5-5--0--0-0--5--5-5--0--0-0-|

VARIATION DURRING THAT INSTRUMENTAL STUFF AT THE END
G|-----------------------------------------------------|
D|-----------------------------------------------------|
A|-----------------------------------------------------|
E|-5-5-5-5-5-5-5-5-/9-9-9-9-9-9-9-\2-2-2-/9-\2-2-2-/12-|

OUTRO
* = sustain note
G|-------------------------------|
D|-------------------------------|
A|-------------------------------|x2
E|-5*---5/9*---9\2*---2/5*-4*-5*-|

G|-------------------------|
D|-------------------------|
A|-------------------------|
E|-5*---5/9*---9\2*---2/5*-|

I'm relatively sure about most of this, I know it is at least pretty
close.  The only think I'm kinda sketchy about is the chorus.  Well,
            
Tabs too difficult? Try these video lessons and learn fast.


comments powered by Disqus
↑ Back to top | Tablatures and chords are parodies/interpretations of the original songs. You may use it for private study, scholarship, research or language learning purposes only