» » »

Anymore Tabs (ver.1)

Artists:  A B C D E F G H I J K L M N O P Q R S T U V W X Y Z # 

Anymore Tabs (ver.1)

That Dog
Rating:
0/5 (0 votes)

Tabs too difficult? Try these video lessons and learn fast.
                
~~~~~~~~~~~~~~~~~~
A very nice and calm song

chord-progression:
  B4                        A9                       f# 
e:------------------------|------------------------|------------------------<
b:-5--5--5--5--5--5--5--5-|-2--2--2--2--2--2--2--2-|------------------------<
G:-4--4--4--4--4--4--4--4-|-4--4--4--4--4--4--4--4-|-2--2--2--2--2--2--2--2-< 
D:-4--4--4--4--4--4--4--4-|-2--2--2--2--2--2--2--2-|-4--4--4--4--4--4--4--4-<
A:-2--2--2--2--2--2--2--2-|-0--0--0--0--0--0--0--0-|-4--4--4--4--4--4--4--4-<
E:------------------------|------------------------|------------------------<

VERSES:
B4         A9             f#
   I can't do this anymore
B4         A9                f#
   I can't think here anymore
B4         A9              f#
   I can't sit here anymore
                B4  A9  f#  E
   And wait for you

F# E
f#

B4 ...
  I can't be there anymore
I can't compete here anymore
I can't give treatment anymore
And be sweet to you

F# E
f#

SOLO:
  B4 A9 f# [repeat]
e:---4--7--4---------------------..|---4--7--4-5-4-------------------------|
b:------------5-5--7--5----0-----..|----------------5--7--5----0-----------|
G:----------------------------2--..|-----------------------------2---------|  
D:-------------------------------..|---------------------------------------|
A:-------------------------------..|---------------------------------------|
E:-------------------------------..|---------------------------------------|

                                                 B4      A9      f#    E     F#    E  
e:---4--7--4-5--7--9-7--9-7---------5-----..---|-------------------------------------------|
b:--------------------------7---9------5--..-5-|-7-5---5-7-5---5-7-5-7-5---5-7-5-7-5--5--5-|
G:----------------------------------------..---|-------------------------------------------|  
D:----------------------------------------..---|-------------------------------------------|
A:----------------------------------------..---|-------------------------------------------|
E:----------------------------------------..---|-------------------------------------------|

e:---4--7--5-9--7--9-7-----------5------..---|---------------------------------------|
b:-----------------------7---9-------5--..-5-|-7-5---5-7-5---5-7-5-7-5---------------|
G:--------------------------------------..---|---------------------------------------|  
D:--------------------------------------..---|---------------------------------------|
A:--------------------------------------..---|---------------------------------------|
E:--------------------------------------..---|---------------------------------------|
            
Tabs too difficult? Try these video lessons and learn fast.


comments powered by Disqus
↑ Back to top | Tablatures and chords are parodies/interpretations of the original songs. You may use it for private study, scholarship, research or language learning purposes only