» » »

Thastrom, Varje Gng Du Ppnar Kften Tabs (ver.1)

Artists:  A B C D E F G H I J K L M N O P Q R S T U V W X Y Z # 

Varje Gng Du Ppnar Kften Tabs (ver.1)

Thastrom Tabs
Rating:
0/5 (0 votes)
Varje Gng Du Ppnar Kften lessons Tabs too difficult? Try these video lessons and learn fast
                This is my first tab, so I started with a easy song.

0:07-0:35
e------------------------|
b------------------------|
g-17--14----14--------14-|
d--------17----15--17----|4x
a------------------------|
e------------------------|
0:36-0:44
e-------------------------------|
b-------------------------------|
g-17--14----14-17--14-----14----|
d--------17-----------17-----15-|
a-------------------------------|
e-------------------------------|

0:59-1:13
e------------------------|
b------------------------|
g-17--14----14--------14-|
d--------17----15--17----|2x
a------------------------|
e------------------------|

1:14-1:30
e----------------------------------------------------|
b----------------------------------------------------|
g-17--14----14-17--14-----14-17--14----14------------|
d--------17-----------17----(15)----17----15--17--15-|
a----------------------------------------------------|
e----------------------------------------------------|


1:36-1:44
e--------------------------------|
b-18-----------------------------|
g-----14---------17--14-------14-|
d--------17--15---------17-15----|
a--------------------------------|
e--------------------------------|

1:50-2:06
e-------------------------------------------------------------|
b--18------------18-------------------------------------------|
g------14------------14--------17--14-----14-17--14-----14----|
d---------17--15--------17--15--------17------------17-----15-|
a-------------------------------------------------------------|
e-------------------------------------------------------------|

2:34-2:42
e-----------------------------|
b-----------------------------|
g--14-17--14-----14-17--14----|
d------------17------------17-|
a-----------------------------|
e-----------------------------|

2:35-end.
e------------------------------|
b------------------------------|
g-17--14----14--------14-------|
d--------17----15--17----------|2x
a------------------------------|
e------------------------------|
            

comments powered by Disqus
↑ Back to top | Thastrom Tabs for Varje Gng Du Ppnar Kften. Lyrics for acoustic guitar and electric guitar. Tablatures and chords are parodies/interpretations of the original songs. You may use it for private study, scholarship, research or language learning purposes only