» » »

Texas, Say What You Want Tabs (ver.1)

Artists:  A B C D E F G H I J K L M N O P Q R S T U V W X Y Z # 

Say What You Want Tabs (ver.1)

Texas Tabs
 Rating:
4/5 (10 votes)
Say What You Want lessons Tabs too difficult? Try these video lessons and learn fast
                

			Say What You Want by Texas
				----------------

someone
ages ago...  So here's the complete tab, although remember that the
Texas sound
is quite mellow, so not too much distortion, make it soft!

For more Exclusive Tabs, go to:


Intro:
------
     E         Emaj7      C#m7       B? (or C#/B?)
e:---------------------------------------------|
B:---------------------------------------------|
G:---------9---------9----------4----------6---|
D:------9---------9----------6----------6------|
A:---7---------6----------4--------------------|
E:-----------------------------------7---------|
                                     Thumb


Verse 1:
--------

    E         Emaj7      C#m7     B?
e:-----------------------------------------|
B:-----------------------------------------|
G:--------9---------9---------4---------6--|
D:-----9---------9---------6---------6-----|
A:--7---------6---------4------------------|
E:--------------------------------7--------|
   20 secs[]  back time[]....     run...


     A         E/G#        F#m        B
e:---------------------------------------------|
B:---------------------------------------------|
G:---------2---------------------2----------4--|
D:------2------------6--------4----------4-----|
A:---0------------7-------------------2--------|
E:-------------4-----------2-------------------|
     Never  [] make right[]     see[] fine...

Words:
E		   Emaj7     C#m7		    B?
  20 seconds on my back time,  I feel you're on the run
A		       E/G#	 F#m		      B   
 Never let too long to make right, I see you're doing fine.

   Pre-Chorus:
   -----------
   A                  E/G#                 F#m                 A
e:--------5--------5---------4--------4-----------2--------2-------5----
-5|
B:---------------------------------------5------------------------------
--|
G:-----6--------6---------4--------4-----------2--------2-------6-----6-
--|
D:----------------------------------------------------------------------
--|
A:------------------------------7---------------------------------------
--|
E:--5--------5---------4--------------------2--------2------------------
--|
tht feeling,     I can no longer run, I can no longer fly I don't know

   A                  E/G#                 F#m                 B
e:--------5--------5---------4--------4-----------2--------2------------
--|
B:---------------------------------------5------------------------------
--|
G:-----6--------6---------4--------4-----------2--------2------------4--
--|
D:-----------------------------------------------------------------4----
--|
A:------------------------------7-------------------------------2-------
--|
E:--5--------5---------4--------------------2--------2------------------
--|
2.tht feeling,   I can no longer run, I can no longer fly I don't know

Words:
		A	       E/G#
When I get that feeling, I can no longer smile,
      F#m		     A
I can no longer run, I don't know,
		    A		   E/G#
And when I get that feeling, I can no longer run,
	 F#m			B
Coz it's no longer fun, I don't know,

Chorus 1:
---------
	     E			      C#m
Well you can say what you want but it won't change my mind
	   G#m	       A
I feel the same, about you,
	    F#m			       B
And you can tell me the reasons but it won't change my feelings,
	   E		E6 or Emaj7
I feel the same, about you,

Verse 2:
--------
E		       Emaj7	C#m7		    B?
 What I am is what you wanna be,   now that I'm not there,
A			   E/G#		      F#m		B
  I took the table and the wait for you, it's time that I don't care...

Play Break
----------

Chorus 2:
---------

Play chorus 1, with the vocals doubled (delayed)

Solo(-ish): (key of A?)
-----------
Play a combination of the chords and riffs below...
    A			     Riff 1
e:---------------------------------------------------|
B:--2------------------------9h10----9h10---9h10-----|
G:--2------------------------9-------9------9--------|
D:--2------------------------9h11----9h11---9h11-----|
A:--0------------------------------------------------|
E:---------------------------------------------------|
   1.I've said{}to sleep tight
   2.Go close your []........the sun will shine from time 2 time


    A		    Riff 2
e:------------------12-12-12--------------|----|
B:--2---------------10-10-10---9h10-9h10--|----|
G:--2---------------9--9--9----9----9-----|----|
D:--2---------------11-11-11---9h11-9h11--|----|
A:--0-------------------------------------|----|
E:----------------------------------------|----|
1.    oh just dream of me....

   Variation:
			Variation riff
e:---------------------12-12-12-12-12----|
B:---------------------10-10-10-10-10----|
G:---------------------9--9--9--9--9-----|
D:---------------------11-11-11-11-11----|
A:---------------------------------------|
E:---------------------------------------|
 2.          oh just dream of me, yeah...

Words:
------
A					Riff 1
  I've said goodnight try to sleep tight....
A			Riff 2
  oh just dream of me...
A					      Riff
  Go close your eyes coz I'll close mine, the sun will shine from time
to time
A			Variation riff...
  Oh just dream of me, yeah


Ending:
-------
Play chorus x2, with lyrics to the break doubled over the verse lyrics
Fade out.

Fine.
            
Submit corrections

comments powered by Disqus
↑ Back to top | Texas Tabs for Say What You Want. Lyrics for acoustic guitar and electric guitar. Tablatures and chords are parodies/interpretations of the original songs. You may use it for private study, scholarship, research or language learning purposes only