» » »

I Don T Want A Lover Tabs (ver.1)

Artists:  A B C D E F G H I J K L M N O P Q R S T U V W X Y Z # 

I Don T Want A Lover Tabs (ver.1)

Texas
Rating:
0/5 (0 votes)

Hard to play? Try these video lessons and learn fast.
                #------------------------------------------------------------------------------##

 Texas : I don’t want a lover (slide guitar intro)
 
 NOTATION :-
 
 > means slide to next note
 
 F means fret with finger and not bottleneck (it's easier) 
 
 If a note is in brackets don't pluck the string when you've slid to
 it. 
 
                       F
 
 |---------------------5---------------------10--------------------|
 |------------------------7->------------5->----10->-(7)-----------|
 |-----------------------------5->-(7)---------------------5->-(7)-|
 |-------5-----7---------------------------------------------------|
 |---------5->-----------------------------------------------------|
 |---0->-----------------------------------------------------------|
 
 
 |------------------------10---------------------------------------|
 |---5-------5->------5->------------------------------------------|
 |----->-7-------7----5--------------------------------------------|
 |-----------------------------------------------------------------|
 |-----------------------------------------------------------------|
 |-----------------------------------------------------------------|
 
 
 Hope this is useful - it's my first post (corrections welcome etc.)
 
 John Rudderham
 
 
            
Hard to play? Try these video lessons and learn fast. | Correct




comments powered by Disqus
↑ Back to top | Tablatures and chords are parodies/interpretations of the original songs. You may use it for private study, scholarship, research or language learning purposes only