» » »

Turn That S*** Up Tabs (ver.1)

Artists:  A B C D E F G H I J K L M N O P Q R S T U V W X Y Z # 

Turn That S*** Up Tabs (ver.1)

Testeagles
Rating:
0/5 (0 votes)

Hard to play? Try these video lessons and learn fast.
                Standard tuning (E-A-D-G-B-E)

Intro/Chorus

|---------------------|
|---------------------|
|---------------------|
|---------3-----------|
|---------------------|
|-0-1-0-1---0-1-0-1---|


Verse Bass with wah (no guitars)

|------------------|
|-2-3-2-3-0-2-3----|
|------------------|
|------------------|


Bridge

|----------------------------|
|----------------------------|
|----------------------------|
|---7---8---8---10---10---10-|
|-5---6---6---8----8----8----|
|----------------------------|

|----------------------------|
|----------------------------|
|----------------------------|
|---7---8---8---10---8---7---|
|-5---6---6---8--------------|
|------------------6---5-----|
            
Hard to play? Try these video lessons and learn fast. | Correct




comments powered by Disqus
↑ Back to top | Tablatures and chords are parodies/interpretations of the original songs. You may use it for private study, scholarship, research or language learning purposes only