» » »

Testeagles, Propaganda Tabs (ver.1)

Artists:  A B C D E F G H I J K L M N O P Q R S T U V W X Y Z # 

Propaganda Tabs (ver.1)

Testeagles Tabs
Rating:
0/5 (0 votes)
Propaganda lessons Tabs too difficult? Try these video lessons and learn fast
                tuning: DGCFAD
The main riff in this song feels a bit weird to play at first, but once you get the hang of it

Intro: (2 times, w/heavy distortion)
D:-----------------------------
A:-----------------------------
F:-----------------------------
C:-2---------------------------
G:-2---------------------------
D:-0----0-6-3-4----0-3-0-6-3-4-

Then the drums start and the guitar plays this 4 times:
D:-------------------------------
A:-------------------------------
F:-------------------------------
C:-2-----------------------------
G:-2-----------------------------
D:-0----0-6-3-4~~~-0-3-0-6-3-4---

1st verse: (4 times) 
  P.M.-----------------------|   P.M.----------------------|
D:---------------------------------------------------------
A:---------------------------------------------------------
F:---------------------------------------------------------
C:---------------------------------------------------------
G:---------------------------------------------------------
D:-0----0-6-3-4----0-3-0-6-3-4---0----0-6-3-4----0-3-0-6-3-

Every second time the riff above is played, after playing the last note play this:
D:-------
A:-------
F:-------
C:-------
G:-------
D:-4--5--

After you play that 4 times, it goes into the heavier bit of the verse: (4 times)
D:---------------------------------------------------------
A:---------------------------------------------------------
F:---------------------------------------------------------
C:-2-----------------------------2-------------------------
G:-2-----------------------------2-------------------------
D:-0----0-6-3-4----0-3-0-6-3-4---0----0-6-3-4----0-3-0-6-3-

Again, every 2nd time after the last note you play:
D:-------
A:-------
F:-------
C:-------
G:-------
D:-4--5--

Chorus: (8 times)
D:-------------------------------
A:-------------------------------
F:-------------------------------
C:-2-----------------------------
G:-2-----------------------------
D:-0----0-6-3-4~~~-0-3-0-6-3-4---

Then this: (12 times, then after the 12th time play the first two notes again)
D:-------------
A:-------------
F:-------------
C:-------------
G:-------------
D:-4-3-0-6-3-0-

Pre-verse bit: (4 times)
D:-------------------------------
A:-------------------------------
F:-------------------------------
C:-2-----------------------------
G:-2-----------------------------
D:-0----0-6-3-4~~~-0-3-0-6-3-4---

After you have played the above riff 2 times, this fill comes in over it: (2 times). The lower
note on each chord is bent up so it is roughly the same pitch as the higher one. When you play
this pick each chord as fast as possible, as many times as you can (tremelo picking)

D:--------------
A:-12 ------15 -
F:-14^------17^-
C:--------------
G:--------------
D:--------------

After that, repeat from the start of the first verse, to the bit that you play 12 and a half
times. That's the end of the song. It's pretty much just two riffs except with some changes
like palm-muting through it. Enjoy!
TE'z mu'fuka
            
Submit corrections

comments powered by Disqus
↑ Back to top | Testeagles Tabs for Propaganda. Lyrics for acoustic guitar and electric guitar. Tablatures and chords are parodies/interpretations of the original songs. You may use it for private study, scholarship, research or language learning purposes only