» » »

Testeagles, Agent Tabs (ver.1)

Artists:  A B C D E F G H I J K L M N O P Q R S T U V W X Y Z # 

Agent Tabs (ver.1)

Testeagles Tabs
 Rating:
4/5 (4 votes)
Agent lessons Tabs too difficult? Try these video lessons and learn fast
                "(9)
Key:
^    = bend
r    = return bend
P.M. = palm-muting
x    = muted string
Intro: 8 times (on 3rd time drums start, 
and 5th time bass joins and the guitar gets a more fat-ass sound)
 
Tuned to C

C:----------------------------------------
G:----------------------------------------
D#:----------------------------------------
A#:----------------------------------------
F:---6---------6---------6--x-5-5---5---3-
C:-0-----0--0-----0--0------x-3-3---3---1-

Verse: 8 times, w/heavy dist. (1st time Matt only play one note, 
but all the other times he plays two chords)   

P.M.-----------------|
C:--------------------- 
G:---------------------
D#:---------------------
A#:--------------------- 
F:----6---------------- 
C:-0-------------------

D's rapping bit: (8 times, heavy distortion) 

C:-----------------
G:-----------------
D#:-----------------
A#:----------------- 
F:-2-2---2-2--2--2-
C:-0-0---0-0--0--0-

Chorus: (8 times,1st - 4th time the guitar is 
less distorted, 5th - 8th time it has heavy dist.)

C:--------------------------------------
G:--------------------------------------
D#:--------------------------------------
A#:--------------------------------------
F:-2-2-xx-8-8-xx-5-5-xx-7-7-xx-3-3-xx-3-
C:-0-0-xx-6-6-xx-3-3-xx-5-5-xx-1-1-xx-1-

Post-Chorus: (4 times, first two times with 
less distorted guitar, last two more distorted)
 
C:----------------------------------------
G:----------------------------------------
D#:----------------------------------------
A#:----------------------------------------
F:---6---------6---------6--x-5-5---5---3-
C:-0-----0--0-----0--0------x-3-3---3---1-Verse 2: (8 times, w/heavy dist)
   
P.M.-----------------| 
C:--------------------- 
G:---------------------
D#:---------------------
A#:--------------------- 
F:----6----------------
C:-0-------------------

After the riff above is played 4 times, while Matt is singing 
"It makes ya fragile...", this fill comes in with some kind of tinny distortion:
 
C:------------- 
G:------------- 
D#:-12--^-r-^--- 
A#:-------------
F:------------- 
C:-------------
Chorus: (4 times, all w/heavy dist)
 
C:--------------------------------------
G:--------------------------------------
D#:--------------------------------------
A#:--------------------------------------
F:-2-2-xx-8-8-xx-5-5-xx-7-7-xx-3-3-xx-3-
C:-0-0-xx-6-6-xx-3-3-xx-5-5-xx-1-1-xx-1-

Outro: (12 times) 
C:-----------------
G:-----------------
D#:-----------------
A#:----------------- 
F:-2-2--2-2---2--2-
C:-0-0--0-0---0--0-

Final bit: 
C:----- 
G:-----
D#:-----
A#:----- 
F:-2-2- 
C:-0-0-
"            
Submit corrections

comments powered by Disqus
↑ Back to top | Testeagles Tabs for Agent. Lyrics for acoustic guitar and electric guitar. Tablatures and chords are parodies/interpretations of the original songs. You may use it for private study, scholarship, research or language learning purposes only