>
 >
Souls Of Black

Souls Of Black Guitar Tabs

Testament - Souls Of Black chords, tabs, tablatures, lyrics

Guitar lessons | Add/correct | Request | Top 50 tabs Artists:  A B C D E F G H I J K L M N O P Q R S T U V W X Y Z 0-9

Souls Of Black Guitar Tabs – Testament

CD, Sheet music, Poster

Do you like Souls Of Black? Share with your friends now
Bass TabsBass Tabs v2TabsTabs v2
SOULS OF BLACK
                            As recorded by Testament
                      (From the Album SOULS OF BLACK)

Music by Testament

If you want this in Adobe format it looks 10 times better and easier to read. Just email 
me and i'll send it to you. It will look like you bought it in a store! All you need is 
the adobe reader which is free.

This is the whole song. It's played with alot of 2 guitar parts. I have them seperated but 
you can play it on one guitar. The solo is dead on balls accurate as I have watched him 
play it a million times.


  Q.=133
 12/8
  Gtr I
|------------------------------|--------------------------|
|-------12---11----------------|--------------------------|
|-----9----9-----------12---11-|---9---9---7--------------|
|---9----------------9----9----|-----9---9---7-7--------7-|
|-7-------------7-10-----------|-7---------------10-9-9---|
|------------------------------|--------------------------|
|
|------------------------------|--------------------------|
|------------------------------|--------------------------|
|------------------------------|--------------------------|
|------------------------------|--------------------------|
|-2----------------------------|-5-------------4----------|
|-0----------------------------|-3-------------2----------|

|------------------------------|---------------------------
|-------12---11----------------|---------------------------
|-----9----9-----------12---11-|-------9---9-8-9-----------
|---9----------------9----9----|-----9---9-------9-9-------
|-7-------------7-10-----------|-7-7-----------------10-9--
|------------------------------|---------------------------
|
|                                            PM---------|
|------------------------------|---------------------------
|------------------------------|---------------------------
|------------------------------|---------------------------
|----------------------------5-|-5-------------------------
|-2----------------7-----------|---------------------------
|-0----------------0---------3-|-3-----------2-2-2-2--2-2--


  PM--|       PM--|         PM--|
|-------------------------|-----------------------|
|-------------------------|-----------------------|
|-------------------------|-----------------------|
|--------8--7--------5--4-|-------1-2---0---------|
|-------------------------|-----------2---0-3---2-|
|-0-0-0-------0-0-0-------|-0-0-0-------------3---|
|
| PM--|       PM--|         PM--|
|-------------------------|-----------------------|
|-------11-10-------------|-----------------------|
|-------------------12-11-|-------8-9-------------|
|-------------------------|-----------------------|
|-------------------------|-------------5---3---2-|
|-0-0-0-------0-0-0-------|-0-0-0-----7---5---3---|


  PM--|       PM--|         PM--|
|-------------------------|-------------------------|
|-------------------------|-------------------------|
|-------------------------|-------------------------|
|--------8--7--------5--4-|-------1-2---------------|
|-------------------------|--------------5-4--0---0-|
|-0-0-0-------0-0-0-------|-0-0-0------0-3-2----3---|
|
| PM--|       PM--|         PM--|
|-------------------------|-------------------------|
|-------11-10-------------|-------------------------|
|-------------------12-11-|-------8-9---------------|
|-------------------------|-------------------------|
|-------------------------|--------------5-4--0---0-|
|-0-0-0-------0-0-0-------|-0-0-0------0-3-2----3---|

|-------------------------|--------------|---------------|-
|-------------------------|--------------|---------------|-
|-------------------------|--------------|---------------|-
|-3-3-3-3-3-3-3-3-3-3-3-3-|-3------------|---------------|-
|-1-1-1-1-1-1-1-1-1-1-1-1-|-1-2------12\-|-------5--7--5-|-
|-------------------------|---0------10\-|-0-0-0-3--5--3-|-

-----------------|
-----------------|
-----------------|
---------3--6----|
-------5-1--4-5--|
-0-0-0-3---------|


  PM--|                     PM--|           PM--|
--------------|---------|---------------|------------------
--------------|---------|---------------|------------------
------------7-|-6--5----|---------------|------------------
---------3----|-------3-|----------2----|----------3--6--7\
------5--1--5-|-4--3--1-|-------5--4--5-|-------5--1--4--5\
0-0-0-3-------|---------|-0-0-0-3--5--3-|-0-0-0-3----------


|---------------|------------||----------------|-----------
|---------------|------------||o---------------|-----------
|-------------7-|------------||----------------|-----------
|----------3----|-6--------7-||-----------2----|----------
|-------5--1--5-|-4--------5-||o-------5--4--5-|-------5--
|-0-0-0-3-------|----0-0-0---||--0-0-0-3--5--3-|-0-0-0-3---

--------|
--------|
--------|
3---6---|
1---4-5-|
--------|

  PM--|                     PM--|           PM--|
--------------|---------|---------------|------------------
--------------|---------|---------------|------------------
------------7-|-6--5----|---------------|------------------
---------3----|-------3-|----------2----|----------3--6--7\
------5--1--5-|-4--3--1-|-------5--4--5-|-------5--1--4--5\
0-0-0-3-------|---------|-0-0-0-3--5--3-|-0-0-0-3----------


  PM  PM              PM--|          PM--|     PM--|
|---------------|-------------||---------------------|-----
|---------------|-------------||---------------------|-----
|-------------7-|--6----------||---------------------|-----
|----------3----|-----------7-||-8-9-------3-2-------|-----
|-------5--1--5-|--4--------5-||-6-7-------1-0-------|-4-5-
|-0-0-0-3-------|-----0-0-0---||-----0-0-0-----0-0-0-|-2-3-


------------------|
------------------|
------------------|
------------------|
---1---1p0---5-0--|
0---0-----0-3---0-|


|---------------------|---------------------|
|---------------------|---------------------|
|---------------------|---------------------|
|-8-9-------3-2-------|---------------------|
|-6-7-------1-0-------|-4-5---4-----4-7-4---|
|-----0-0-0-----0-0-0-|-2-3-3---3-6-------6-|

|---------------------|-----------------------|
|---------------------|-----------------------|
|---------------------|-----------------------|
|-8-9-------3-2-------|-----------------------|
|-6-7-------1-0-------|-4-5---1---1p0---5-0---|
|-----0-0-0-----0-0-0-|-2-3-0---0-----0-3---0-|


|---------------------|-------------------------|
|---------------------|-------------------------|
|---------------------|-------------------------|
|-8-9-------3-2-------|-------------------------|
|-6-7-------1-0-------|-5-5-5-5-5-5-5-5-5-5-5-5-|
|-----0-0-0-----0-0-0-|-3-3-3-3-3-3-3-3-3-3-3-3-|


 -----|        PM--|         PM--|
|--------------------------|--------------------------|
|--------------------------|--------------------------|
|--------------------------|--------------------------|
|--------8--7---------5--4-|--------1-2---------------|
|--------------------------|------------2-0---3---2---|
|-0-0-0--------0-0-0-------|-0-0-0----------0---3-----|
|
| PM--|        PM--|         PM--|
|--------------------------|--------------------------|
|-------11-10--------------|--------------------------|
|--------------------12-11-|--------8-9---------------|
|--------------------------|--------------------------|
|--------------------------|--------------5---3---2---|
|-0-0-0--------0-0-0-------|-0-0-0------7---5---3-----|


PM--|       PM--|
|-------------------------|-----------------------|
|-------------------------|-----------------------|
|-------------------------|-----------------------|
|--------8--7--------5--4-|-------1-2-------------|
|-------------------------|-------------5-4-0---3-|
|-0-0-0-------0-0-0-------|-0-0-0-----0-3-2---3---|
|
| PM--|       PM--|
|-------------------------|-----------------------|
|-------11-10-------------|-----------------------|
|-------------------12-11-|-------8-9-------------|
|-------------------------|-----------------------|
|-------------------------|-------------5-4-0---3-|
|-0-0-0-------0-0-0-------|-0-0-0-----0-3-2---3---|


  PM--|       PM--|         PM--|
|-------------------------|-------------------------|
|-------------------------|-------------------------|
|-------------------------|-------------------------|
|--------8--7--------5--4-|-------1-2---------------|
|-------------------------|------------2-0---3---2--|
|-0-0-0-------0-0-0-------|-0-0-0----------0---3----|
|
| PM--|       PM--|         PM--|
|-------------------------|-------------------------|
|-------11-10-------------|-------------------------|
|-------------------12-11-|-------8-9---------------|
|-------------------------|-------------------------|
|-------------------------|--------------5---3---2--|
|-0-0-0-------0-0-0-------|-0-0-0------7---5---3----|


  PM--|       PM--|
|-------------------------|--------------||
|-------------------------|-------------o||
|-------------------------|--------------||
|--------8--7--------5--4-|-2-----3-2----||
|-------------------------|-2-----1-0-5-o||
|-0-0-0-------0-0-0-------|-0---------3--||
|
| PM--|       PM--|
|-------------------------|--------------||
|-------11-10-------------|-------------o||
|-------------------12-11-|--------------||
|-------------------------|-2-----3-2----||
|-------------------------|-2-----1-0-5-o||
|-0-0-0-------0-0-0-------|-0---------3--||


SOLO

|-----------------------||---------------------------------
|---------------------8-||-10b12-10(22)pb12r==10p8-10-8-10-
|-------------------9---||---------------------------------
|-----------------------||---------------------------------
|-----------------------||---------------------------------
|-----------------------||---------------------------------
|
|
|Rhtym under solo
|
| PM--------|                                   PM--|
|-----------------------||---------------------------------
|-----------------------||---------------------------------
|-----------------------||---------------------------------
|-2-2-2-2-2-2--3--2-----||-------------------------------3-
|-0-0-0-0-0-0--1--0---5-||--2--------------------------5-1-
|---------------------3-||--0-------------------0-0--0-3---



|---------------------------|------------------------------
|-8-----------------------8-|-10b12-10pb12r==10p8-10--8h10-
|---9-----9(21)---------9---|------------------------------
|---------------------------|-----------------------------
|---------------------------|------------------------------
|---------------------------|------------------------------
|
|
|       PM|       PM|   PM|                     PM---|
|---------------------------|------------------------------
|---------------------------|------------------------------
|---------------------------|------------------------------
|---------------------------|----------------------------3-
|-2---2---------2-----2-----|--2-----------------------5-1-
|-0---0-0-0-----0-0-0-0-0-0-|--0----------------0--0-0-3---



|--8h11p8--------------------------------------------------
|---------10p8p7-8h10p8p7----------------------------------
|-------------------------9p8----8h9p8---------------------
|-----------------------------10-------10p9p7-9h10p9p7-----
|-----------------------------------------------------10p9-
|----------------------------------------------------------
|
|
|----------------------------------------------------------
|----------------------------------------------------------
|----------------------------------------------------------
|--4-------------4-------------4------------4--------------
|--2-------------2----2---2----2---2----2---2------2----2--
|----------------------------------------------------------


|-------------------------------------|
|-------------------------------------|
|----12-12-12s11-11-11s14-14-14s12-12-|
|-------------------------------------|
|-7--10-10-10s=9--9--9s12-12-12s10-10-|
|-------------------------------------|
|
|-------------------------------------|
|-------------------------------------|
|-------------------------------------|
|-------------------------------------|
|-2---------2--------5--------4-------|
|-0---------0--0--0--3--------2-----3-|


|-------------------------------------|--------------------
|-------------------------------------|--------------------
|-12s17-17-17s16-16-16s14-14-14s12-12-|-12s11-11-11s==8-8-
|-------------------------------------|--------------------
|-10s15-15-15s14-14-14s12-12-12s10-10-|-10p=9--9--9s==6-6-
|-------------------------------------|--------------------

------------|
------------|
------------|
8s5-5-5s4-4-|
------------|
6S3-3-3s2-2-|
-----------|

|-----5h6p5p3-----5h6p5p3-----5h6p5p3-----|----------------
|-------------5p3---------5p3---------5p3-|-3s5--5h7h8h12--
|-4---------------------------------------|----------------
|-----------------------------------------|----------------
|-2---------------------------------------|----------------
|-----------------------------------------|----------------



-------------|
-8h12p8-7--8-|
-------------|
-------------|
-------------|
-------------|

|------------------------15-17-|-17b19-17pb19----17p15-
|---------------------17-------|-----------------------
|-/9--9(21)--------------------|-----------------------
|------------------------------|-----------------------
|------------------------------|-----------------------
|------------------------------|-----------------------



17p15-17b19-17pb19-------|
-------------------12----|
----------------------12-|
-------------------------|
-------------------------|
-------------------------|



|-17h18p17p15-------17h18p17p15-------17h18p17p15-------
|-------------17----------------17----------------17----
|----------------16----------------16----------------16-
|-------------------------------------------------------
|-------------------------------------------------------
|-------------------------------------------------------


17h18p17p15---------|
------------17------|
----------------15--|
--------------------|
--------------------|
--------------------|



|-------------------------------|--------------12-15-14-12-
|----------------14p12----------|------------12------------
|-12-------------14p12----14-12-|---------12---------------
|-----14p12------------14-------|------14------------------
|-----------14------------------|-12-15--------------------
|-------------------------------|--------------------------




----------------|
-[15]b17--------|
----------------|
----------------|
----------------|
----------------|


|-12------------------------------------------|
|----15-12------------------------------------|
|----------[14]p==12----14-12-----------------|
|--------------------14-------14--------------|
|--------------------------------14s12--10----|
|------------------------------------------12-|


|------------------------------------------------------|
|------------------------------------------------------|
|---------------------------------------------16h18h19-|
|---------------------------14h16h17-16h17h19----------|
|------10-12h14h15-14h16h17----------------------------|
|-12---------------------------------------------------|



|-----------------------------------------------19h20h22---
|--------------------------------------17h20s22----------
|-----------16h18h19----------16h18h19---------------------
|-16h=17h19----------16h17h19------------------------------
|----------------------------------------------------------
|----------------------------------------------------------



---------19h20h22-|-22b24------------------22b24\-|
17h20s22----------|-------------------------------|
------------------|-------------------------------|
------------------|-------------------------------|
------------------|-------------------------------|
------------------|-------------------------------|


|----------------|------------------|----------------|----|
|----------------|------------------|----------------|----|
|----------------|------------------|-------------7--|-6-5-
|----------------|---------3---6----|----------3-----|---3-
|-------5--7--5--|-------5-1---4-5--|-------5--1--5--|-4-3-
|-0-0-0-3--5--3--|-0-0-0-3----------|-0-0-0-3--------|-----



|----------------|------------------|----------------|-----
|----------------|------------------|----------------|-----
|----------------|------------------|-------------7--|-6---
|----------------|----------3--6--7-|----------3-----|-----
|-------5--7--5--|-------5--1--4--5-|-------5--1--5--|-4---
|-0-0-0-3--5--3--|-0-0-0-3----------|-0-0-0-3--------|-----




---------||
---------||
---------||
------7--||
------5--||
0-0-0----||

|---------------------|-----------------------|
|---------------------|-----------------------|
|---------------------|-----------------------|
|-8-9-------3-2-------|-----------------------|
|-6-7-------1-0-------|-4-5---1---1p0---5-0---|
|-----0-0-0-----0-0-0-|-2-3-0---0-----0-3---0-|


      PM--|     PM--|
|-------------------------|-----------------|
|-------------------------|-----------------|
|-------------------------|-----------------|
|-8-9-------3-2-----------|-----------------|
|-6-7-------1-0-------4-5-|---4-----4-7-4---|
|-----0-0-0-----0-0-0-2-3-|-3---3-6-------6-|


      PM--|     PM--|
|-------------------------|-------------------|
|-------------------------|-------------------|
|-------------------------|-------------------|
|-8-9-------3-2-----------|-------------------|
|-6-7-------1-0-------4-5-|---1---1p0---5-0---|
|-----0-0-0-----0-0-0-2-3-|-0---0-----0-3---0-|


      PM--|     PM-----------------------------|
|---------------------|--------------------------|
|---------------------|--------------------------|
|---------------------|--------------------------|
|-8-9-------3-2-------|--------------------------|
|-6-7-------1-0-------|--5-5-5-5-5-5-5-5-5-5-5-5-|
|-----0-0-0-----0-0-0-|--3-3-3-3-3-3-3-3-3-3-3-3-|


                            PM--|
|-------------------------|-----------------------|
|-------------------------|-----------------------|
|-------------------------|-----------------------|
|--------8--7--------5--4-|-------1-2---0---------|
|-----7-------------------|-----------2---0-3---2-|
|-5-9---------0-0-0-------|-0-0-0-------------3---|
|
|                           PM--|
|-------------------------|-----------------------|
|-------11-10-------------|-----------------------|
|-------------------12-11-|-------8-9-------------|
|-------------------------|-----------------------|
|-----7-------------------|-------------5---3---2-|
|-5-9---------0-0-0-------|-0-0-0-----7---5---3---|


  PM--|       PM--|             PM
|-------------------------|-------------------------|
|-------------------------|-------------------------|
|-------------------------|-------------------------|
|--------8--7--------5--4-|-------1-2---------------|
|-------------------------|-------------5--4-0---0--|
|-0-0-0-------0-0-0-------|-0-0-0-----0-3--2---3----|
|
| PM--|       PM--|             PM
|-------------------------|-------------------------|
|-------11-10-------------|-------------------------|
|-------------------12-11-|-------8-9---------------|
|-------------------------|-------------------------|
|-------------------------|-------------5--4-0---0--|
|-0-0-0-------0-0-0-------|-0-0-0-----0-3--2---3----|


  PM--|       PM--|       PM---
|-----------------------------|
|-----------------------------|
|-----------------------------|
|--------8--7--------5--4-----|
|-----------------------------|
|-0-0-0-------0-0-0-------0-0-|
|
| PM--|       PM--|       PM---
|-----------------------------|
|-------11-10-----------------|
|-------------------12-11-----|
|-----------------------------|
|-----------------------------|
|-0-0-0-------0-0-0-------0-0-|


 -|                 PM--|         PM--|
|-------------------------|-------------------|---*|
|-------------------------|-------------------|---*|
|-------------------------|-------------------|---*|
|---1-2---0---------------|--8--7--------5--4-|---*|
|-------2---0-3---2-------|-------------------|-7-*|
|-0-------------3---0-0-0-|-------0-0-0-------|-0-*|
|
|-|                 PM--|         PM--|
|-------------------------|-------------------|---*|
|-------------------------|-11-10-------------|---*|
|---8-9-------------------|-------------12-11-|---*|
|-------------------------|-------------------|-9-*|
|---------5---3---2-------|-------------------|-7-*|
|-0-----7---5---3---0-0-0-|-------0-0-0-------|---*|


THE END





Comments


Popular Testament tabs & chords
D.N.R. (Do Not Resuscitate) Tabs
Disciples Of The Watch Tabs
For The Glory Of Tabs
Legacy Tabs
More Than Meets The Eye Tabs
Over The Wall Tabs
Practice What You Preach 1 Tabs
The New Order 2 Tabs
Trail Of Tears Tabs
Trail Of Tears 1 Tabs


Song lyrics



↑ Back to top | Tablatures and chords are parodies/interpretations of the original songs. You may use it for private study, scholarship, research or language learning purposes only
© 2014 AZChords.com Contact us | Privacy policy | DMCA | Add/correct tabs | Request tabs | Top 50 tabs