>
 >
Pvt Ledbetter

Pvt Ledbetter Guitar Tabs

Tesla - Pvt Ledbetter chords, tabs, tablatures, lyrics

Guitar lessons | Add/correct | Request | Top 50 tabs Artists:  A B C D E F G H I J K L M N O P Q R S T U V W X Y Z 0-9

Pvt Ledbetter Guitar Tabs – Tesla

CD, Sheet music, Poster

Do you like Pvt Ledbetter? Share with your friends now
ChordsTabsUkulele


----------------------------------------------------
Tune: half step down

Intro
|--------------------------------------|
|-8---8---8---8---8---8---8---8--------|
|---7---7---7---7---7---7---7---7------|
|--------------------------------------|
|--------------------------------------|
|--------------------------------------|


Verse 1
|----------------------------------------------------|
|-8---8---8---8---8---8---8---8----------------------|
|---7---7---7---7---7---7---7---7-------(play x4)----|
|----------------------------------------------------|
|----------------------------------------------------|
|----------------------------------------------------|


Chorous 1
 Gtr. 1
|-2-------0---0---3----3----3-3-3-2-------0---0---1---1-3---3-3-----|
|-3-------1---1---3----3----3-3-3-3-------1---1---1---1-3---3-3-----|
|-2-------0---0---0----0----0-0-0-2-------0---0---2---2-0---0-0-----|
|-0-------2---2---0----0----0-0-0-0-------2---2---3---3-0---0-0-----|
|---------3---3---2----2----2-2-2---------3---3---3---3-2---2-2-----|
|-----------------3----3----3-3-3-----------------1---1-3---3-3-----|
|Gtr. 2
|-----2----------------3----3-3-3-----2-------0---1--1-3------------|
|---3------------------3--3-3-3-3---3---------1---1--2-3------------|
|-2------------0-------0----0-0-0-2---------0-----2--3-0------------|
|-0----------2-------0------0-0-0-0-------2-------3--3-0--------0---|
|--------3---------2------------2---------3-------3--3-2----0h2---2-|
|----------------3--------------3-----------------1--1-3--3---------|

 Gtr. 1
|-2-------0---0---3----3----3-3-3-0----0----0-0-0-1---1-3----------|
|-3-------1---1---3----3----3-3-3-1----1----1-1-1-1---1-3----------|
|-2-------0---0---0----0----0-0-0-2----2----2-2-2-2---2-0----------|
|-0-------2---2---0----0----0-0-0-2----2----2-2-2-3---3-0----------|
|---------3---3---2----2----2-2-2-0----0----0-0-0-3---3-2----------|
|-----------------3----3----3-3-3-----------------1---1-3----------|
|Gtr. 2
|-----2------0---------3----3-3-3-------0---------1---1-3----------|
|---3--------1---------3--3-3-3-3-----1-1---0h1---1---2-3----------|
|-2--------------------0----0-0-0-------2---------2---3-0----------|
|-0--------2---------0------0-0-0---2-------------3---3-0----------|
|--------3---------2------------2-0---------------3---3-2----------|
|----------------3--------------3-----------------1---1-3----------|


Verse 2
 Gtr. 1
|----------------------------------------------------|
|-8---8---8---8---8---8---8---8----------------------|
|---7---7---7---7---7---7---7---7-------(play x4)----|
|----------------------------------------------------|
|----------------------------------------------------|
|----------------------------------------------------|

 Gtr. 2
|-------3-------------3-------------3---------------3-------|
|-------3-----------1-1-------------1-------------5---------|
|-----4-----------2---------------2-------------5--------5--|
|---5---------------------------3-------------5-------------|
|---------------0---------------------------3---------------|
|-3---------------------------1-----------------------------|

|-------3-------------3-------------3--------------------------|
|-------3-----------1-1-------------1--------------------------|
|-4---4-----------2---------------2----------------------------|
|---5---------------------------3------------------------------|
|---------------0----------------------------------------------|
|-----------------------------1--------------------------------|

End verse 2
 Gtr. 1
|-1-----3---3-3---------|
|-1---1-3---3-3---------|
|-2---2-0---0-0---------|
|-3---3-0---0-0---------|
|-3-----2---2-2---------|
|-1-----3---3-3---------|
|Gtr. 2
|-1-----3---------------|
|-1---1-3---------------|
|-2---2-0---------------|
|-3---3-0---------0-----|
|-3-----2-----0h2---2---|
|-1-----3---3-----------|


Chorous 2
 Gtr. 1
|-2-------0---0---3----3----3-3-3-2-------0---0---1---1-3------3---|
|-3-------1---1---3----3----3-3-3-3-------1---1---1---1-3--1p0-3---|
|-2-------0---0---0----0----0-0-0-2-------0---0---2---2-0------0---|
|-0-------2---2---0----0----0-0-0-0-------2---2---3---3-0------0---|
|---------3---3---2----2----2-2-2---------3---3---3---3-2------2---|
|-----------------3----3----3-3-3-----------------1---1-3------3---|
|Gtr. 2
|-----2----------------3---------3-----2-------0---1--1-3----------|
|---3------------------3--3------3---3---------1---1--2-3----------|
|-2------------0-------0---------0-2---------0-----2--3-0----------|
|-0----------2-------0--------0--0-0-------2-------3--3-0-------0--|
|--------3---------2-------0h2-2-2---------3-------3--3-2----0h2-2-|
|----------------3---------------3-----------------1--1-3--3-------|

 Gtr. 1
|-2-------0---0---3----3----3-3-3-0----0----0-0-0-1---1-3------3---|
|-3-------1---1---3----3----3-3-3-1----1----1-1-1-1---1-3--------0-|
|-2-------0---0---0----0----0-0-0-2----2----2-2-2-2---2-0----0-----|
|-0-------2---2---0----0----0-0-0-2----2----2-2-2-3---3-0----------|
|---------3---3---2----2----2-2-2-0----0----0-0-0-3---3-2----------|
|-----------------3----3----3-3-3-----------------1---1-3----------|
|Gtr. 2
|------------0---------3----3-3-3-----------------1---1-3----------|
|------------1---------3--3-3-3-3-----------------1---2-3----------|
|----------------------0----0-0-0-----------------2---3-0----------|
|-0--------2---------0------0-0-0-----------------3---3-0----------|
|--------3---------2------------2-----------------3---3-2----------|
|----------------3--------------3-3h5-------------1---1-3----------|


Solo
 Gtr. 1
|-------0---------------0---------------1---------------0---------|
|-----------0---------------1---------------1----------------1-0--|
|---------------------0---------------2-------2-------0-----------|
|-----2-------------2---------------3-----------3---2-------------|
|---2-------------3-------------3-----------------3---------------|
|-0-------------------------------1-------------------------------|

|-------0---------------0---------------1---1-0---0---------------|
|-----------0---------------1-------------------3-1---------------|
|---------------------0-------0-------2-----------0---------------|
|-----2-------------2-----------2---3-------------2---------------|
|---2-------------3-------------------------------3---------------|
|-0-------------------------------1-------------------------------|

 Gtr. 2
|--------------------------------------------------------------|
|--------------------------------------------------------------|
|--------------------------------------------------------------|
|--------------5----7-5-7fb-----7fb-7fbr---5---5---5h7p5-3-----|
|-2--------5-7-------------------------------7-----------------|
|-0----5h7-----------------------------------------------------|

|---------------------------8-------------|
|---------------6---8p6-8fb---8fbr--------|
|-----5-----5h7--------------------7fb----|
|-5h7-------------------------------------|
|-----------------------------------------|
|-----------------------------------------|

|-------------------------------------------------------------------|
|----------------------12-------------15-------------------12-------|
|----------------------12---------14fb----14fbr-12---------12-------|
|----------------12h14------14p12--------------------14p12----14p12-|
|-2-------10-14-----------------------------------------------------|
|-0----12-----------------------------------------------------------|

|--------------------------------------------------------------|
|-13-12--------------------------------------------------------|
|-------14-12---------12-14fb-12-------------------------------|
|---------------12h14------------------------------------------|
|--------------------------------------------------------------|
|--------------------------------------------------------------|


Play verse & chorous


End of chorous 3
 Gtr. 1
|-0-----0-----0-0-0-0-----3--------------|
|-1-----1-----1-1-1-1-----3--------------|
|-2-----2-----2-2-2-0-----0--------------|
|-2-----2-----2-2-2-2-----0--------------|
|-0-----0-----0-0-0-3-----2--------------|
|-------------------------3--------------|
|Gtr. 2
|-------0-----------0-----3--------------|
|-------1-----------1-----3--------------|
|-----2-------2-----0-----0--------------|
|---2---------2-----2-----0--------------|
|-0-----------0-----3-----2--------------|
|-------------------------3--------------|


Outro solo (play with chorous)
|------------------------------------------------------------|
|-15fb----15-------------------------------------------------|
|-------------------------12----12h14-----------12----12h14--|
|-------------------12h14----14-----------12h14----14--------|
|------------------------------------------------------------|
|------------------------------------------------------------|





Comments


Popular Tesla tabs & chords
Love Song 2 Bass Tabs
Down Fo' Boogie Tabs
Down Fo' Boogie 1 Tabs
Forever More 1 Tabs
Forever More 2 Tabs
Love Song Live Tabs
Thank You Tabs
The First Time Tabs
The Game Tabs
Games People Play Ukulele


Song lyrics



↑ Back to top | Tablatures and chords are parodies/interpretations of the original songs. You may use it for private study, scholarship, research or language learning purposes only
© 2014 AZChords.com Contact us | Privacy policy | DMCA | Add/correct tabs | Request tabs | Top 50 tabs