>
 >
Love Song (Intro Ver 3)

Love Song (Intro Ver 3) Guitar Tabs

Tesla - Love Song (Intro Ver 3) chords, tabs, tablatures, lyrics

Guitar lessons | Add/correct | Request | Top 50 tabs Artists:  A B C D E F G H I J K L M N O P Q R S T U V W X Y Z 0-9

Love Song (Intro Ver 3) Guitar Tabs – Tesla

CD, Sheet music, Poster

Do you like Love Song (Intro Ver 3)? Share with your friends now
Tabs
I feel this is 99.9%!! Enjoy! 


e|---3-----3p2------2-------------------14p12p10----------2---3-3p2--------|
B|--------------5-------3-3-3-----------------------------------------5----|
G|-------------------------------------------------------------------------|
D|---0--------------0-------------------------------------0----------------|
A|-------------------------------------------------------------------------|
E|-------------------------------------------------------------------------|

     
e|--------------------------2--------------------------------5----7-7p5----|
B|---2----3---5------2---------3---------0-----2---3---------7-----------8-|
G|-------------------------------4-----------------------------------------|
D|-----------------------4-----------------------------------0-------------|
A|---0---------------2-----------------------------------------------------|
E|---------------------------------------3---------------------------------|

     
e|---0----2---3-------------2---------------------------5---7-7p5----------|
B|---2----3---5-----2----------3---------0---2---3------7----------8-------|
G|--------------------------------4----------------------------------------|
D|----------------------4-------------------------------0------------------|
A|---0--------------2------------------------------------------------------|
E|---------------------------------------3---------------------------------|

     
e|---0---2---3------2-------2---------------------------2---3-3p2----------|
B|---2---3---5-----------------3---------0---2---3-----------------5-------|
G|--------------------------------4----------------------------------------|
D|----------------------4-------------------------------0------------------|
A|---0--------------2------------------------------------------------------|
E|---------------------------------------3---------------------------------|

    
e|----------------------0--------------------0------------2------------2---|
B|---2--3--5-----3---2------3------------2-----2----2-------2-----2------2-|
G|-----------------------------0-----------------2------------2-----------2|
D|--------------------------------0---------2------------------------------|
A|---0-----------2---0---------------0---0--------------4------------4-----|
E|----------------------4---3-----------------------2-------------2--------|


e|-------------------------------------------------------------------------|
B|---0--2--3------2--3---3s5--3--3p2p0-----2--3---0--2--3------2--3--------|
G|-------------2------------------------2-------------------2--------------|
D|-------------------------------------------------------------------------|
A|-------------------------------------------------------------------------|
E|---3---------2---------0--------------2---------3---------2--------------|

                                     (quickly)            (quickly)
e|-------------------------------------------------------------------------|
B|---3s5--3--3p2p0--2------------------------------------------------------|
G|--------------------(let ring)------4p2p0--(repeat x4)--4p2p0------------|
D|--------------------------------------------------------------4p2p0------|
A|------------------0-------------------------------------------------4p2p0|
E|---0---------------------------------------------------------------------|

        (quickly)
e|-------------------------2--3-3p2----------------------------------------|
B|-------------------------3---------5-------------------------------------|
G|--4p2p0------------------2-----------------------------------------------|
D|--------4p2p0------------0-----------------------------------------------|
A|--------------4p2p0------0-----------------------------------------------|
E|-------------------------x-----------------------------------------------|

     
e|--------------------------2--------------------------------5----7-7p5----|
B|---2----3---5------2---------3---------0-----2---3---------7-----------8-|
G|-------------------------------4-----------------------------------------|
D|-----------------------4-----------------------------------0-------------|
A|---0---------------2-----------------------------------------------------|
E|---------------------------------------3---------------------------------|

   
e|---0----2---3-------------2---------------------------5---7-7p5----------|
B|---2----3---5-----2----------3---------0---2---3------7----------8-------|
G|--------------------------------4----------------------------------------|
D|----------------------4-------------------------------0------------------|
A|---0--------------2------------------------------------------------------|
E|---------------------------------------3---------------------------------|

     
e|---0---2---3------2-------2---------------------------2---3-3p2----------|
B|---2---3---5-----------------3---------0---2---3-----------------5-------|
G|--------------------------------4----------------------------------------|
D|----------------------4-------------------------------0------------------|
A|---0--------------2------------------------------------------------------|
E|---------------------------------------3---------------------------------|

     
e|----------------------0--------------------0---------2---3--(slide)-10---|
B|---2--3--5-----3---2------3------------2-----2-------3---5----------10---|
G|-----------------------------0-----------------2-------------------------|
D|--------------------------------0---------2----------0---------------0---|
A|---0-----------2---0---------------0---0---------------------------------|
E|----------------------4---3----------------------------------------------|

| 
| s  slide 
| h  hammer-on
| p  pull-off
| ~  vibrato
| +  harmonic
| x  Mute note





Comments


Popular Tesla tabs & chords
Little Suzi Bass Tabs
Love Song Bass Tabs
Caught In A Dream Chords
Signs Live Chords
A Lot To Lose Tabs
Change In The Weather Tabs
Fallin' Apart Tabs
Love Song Live Tabs
Only You Tabs
Signs Live Ukulele


Song lyrics



↑ Back to top | Tablatures and chords are parodies/interpretations of the original songs. You may use it for private study, scholarship, research or language learning purposes only
© 2014 AZChords.com Contact us | Privacy policy | DMCA | Add/correct tabs | Request tabs | Top 50 tabs