>
 >
Just In Case

Just In Case Guitar Tabs

Tesla - Just In Case chords, tabs, tablatures, lyrics

Guitar lessons | Add/correct | Request | Top 50 tabs Artists:  A B C D E F G H I J K L M N O P Q R S T U V W X Y Z 0-9

Just In Case Guitar Tabs – Tesla

CD, Sheet music, Poster

Do you like Just In Case? Share with your friends now
Tabs


----------------------------------------------------
Tune: half step down

intro
 Gtr. 1
|-----------------------------------------------------------------|
|-----------------------------------------------------------------|
|-------2-----2---5---------------------2-----2---5---------------|
|-2-----2-----2---5-----5-----5---2-----2-----2---5---------------|
|-2-----0-----0---3-----5-----5---2-----0-----0---3---------------|
|-0---------------------3-----3---0-------------------------------|

 Gtr. 2
|--------------------------------------------------------------|
|-----8---8-------10fb-10------8---8---13\12-12\8-8------------|
|-7h9---9------------------------9-----------------------------|
|--------------------------------------------------------------|
|--------------------------------------------------------------|
|--------------------------------------------------------------|


Verse
 Gtr. 1 (play x2)
|-----------------------0-------3-3-----3-------------------------|
|-0-----0---------2-----2-------3-3-----3---------3--3--3---------|
|-0-----0---------2-----2-------------------------4--4--4---------|
|-2-----2---------2-------------------------------5--5--5---------|
|-----------------------------------------------------------------|
|-----------------------------------------------------------------|

|-------------------------------3-3-----3-------------------------|
|-0h1-------------0-----0-------3-3-----3---------3--3--3---------|
|-2---------------0-----0-------------------------4--4--4---------|
|-2---------------2-----2-------------------------5--5--5---------|
|-----------------------------------------------------------------|
|-----------------------------------------------------------------|

|-----------------------0-------3-3-----3-------------------------|
|-0-----0---------2-----2-------3-3-----3-------------------------|
|-0-----0---------2-----2-------------------------7---------------|
|-2-----2---------2-------------------------------7---------------|
|-------------------------------------------------5---------------|
|-----------------------------------------------------------------|


Gtr. 2 (play x2)
|-0-------------------------------0---------------3---------------|
|-0---------------2---------------1---------------0---------------|
|-0---------------2---------------0---------------0---------------|
|-2---------------2---------------2---------------0---------------|
|-2---------------0---------------3---------------2---------------|
|-0-----------------------------------------------3---------------|

|-0---------------0---------------0---------------3---------------|
|-1---------------0---------------1---------------0---------------|
|-2---------------0---------------0---------------0---------------|
|-2---------------2---------------2---------------0---------------|
|-0---------------2---------------3---------------2---------------|
|-----------------0-------------------------------3---------------|

|-0-------------------------------0-------------------------------|
|-0---------------2---------------1-------------------------------|
|-0---------------2---------------0---------------7-----------x-x-|
|-2---------------2---------------2---------------7-----------x-x-|
|-2---------------0---------------3---------------5-----------x-x-|
|-0---------------------------------------------------------------|


Gtr. 3 (play x3)
|--------------------0h3-----|
|------------0-----0-0h3-----|
|----------0-0---0-----------|
|--------0---2---------------|
|----0h2---------------------|
|-3--------------------------|


Chorous
|------(   play x3    )-----------|---------------------------------|
|---------------------------------|---------------------------------|
|-------2-----2---5---------------|-------2-----2---5---------------|
|-2-----2-----2---5-----5-----5---|-2-----2-----2---5---------------|
|-2-----0-----0---3-----5-----5---|-2-----0-----0---3---------------|
|-0---------------------3-----3---|-0-------------------------------|


Bridge
|-------2---2-----------0---0-----------0---0-----------0---0------|
|-----3-3-----3---------1-----1---------1-----1---------1-----1----|
|---2-----------2-----0---------0-----2---------2-----0---------0--|
|-0-----------------2---------------2---------------2--------------|
|-----------------3---------------0---------------3----------------|
|------------------------------------------------------------------|

|-----------0-----0---------------|
|-------0-----0---1---------------|
|-------0-------0-0---------------|
|-----2-----------2---------------|
|---2-------------3---------------|
|-0-------------------------------|

|--------------------------------------------|
|--------------------------------------------|
|-2-----2-----2---5-------7-7-7-7-7-7-7-7----|
|-2-----2-----2---5-------7-7-7-7-7-7-7-7----|
|-0-----0-----0---3-------5-5-5-5-5-5-5-5----|
|--------------------------------------------|


Solo
 Gtr. 1 (play x2)
|-------0---------------0---------------0---------------0---------|
|-------0---------------5---------------1---------------5---------|
|-----------------5-----------5---2-----------2---5-----------5---|
|-2-----------2---5-----------5---2-----------2---5-----------5---|
|-2-----------2---3-----------3---0-----------0---3-----------3---|
|-0-----------0---------------------------------------------------|

Gtr. 2
|---------------------------12-14-14hbr-p12-14~~~---|
|-12-15-15fbr-p12-15fb------------------------------|
|---------------------------------------------------|
|---------------------------------------------------|
|---------------------------------------------------|
|---------------------------------------------------|

|-12-14-14hbr-14hbr------------12-----------------------------------|
|-------------------12-15fb-------15-12-------15--------------------|
|---------------------------------------14fb-----14r-14p12-12h14----|
|-------------------------------------------------------------------|
|-------------------------------------------------------------------|
|-------------------------------------------------------------------|

|------------------------------------------------------------------|
|-12------------------------------12-12---------------15-----------|
|-12----12------------------------12-12------12-14fb-----14r-12h14-|
|----14----14---------------12-14---------14-----------------------|
|---------------------10-14----------------------------------------|
|---------------10-12----------------------------------------------|

|--------------------------------------------------------------12--|
|-------------------13p12------------13p12---------------12-15-----|
|-14-12-14----14-12-------14-12-14---------14-12-14---14-----------|
|------------------------------------------------------------------|
|------------------------------------------------------------------|
|------------------------------------------------------------------|

|-14-15-17-15-17-15-17fb-----17fbr-15----15------------------------|
|-------------------------------------17---------------------------|
|------------------------------------------------------------------|
|------------------------------------------------------------------|
|------------------------------------------------------------------|
|------------------------------------------------------------------|


Outro solo (play with chorous)
|-------15---------------------------------------------------------|
|-15fb-----15r------------------13\12-12\10-8---8-----10-----------|
|---------------------------------------------9--------------------|
|------------------------------------------------------------------|
|------------------------------------------------------------------|
|------------------------------------------------------------------|

|------------------------------------------------------------------|
|-15fbr-12---------------------------15fb-------------------15-----|
|----------14-12-----12h14-------------------14fbr-p12-14fb----14r-|
|------------------------------------------------------------------|
|------------------------------------------------------------------|
|------------------------------------------------------------------|

|------------------------------------------------------------------|
|------------13p12---------------13p12---------------------15------|
|-14-12-14------------14-12-14---------14-12-14fbr-12-14fb----14r--|
|------------------------------------------------------------------|
|------------------------------------------------------------------|
|------------------------------------------------------------------|

|-17fb-17fbr-15----15----15----15h17------15----------15-----------|
|---------------17----------17---------------17-15-17--------------|
|------------------------------------------------------------------|
|------------------------------------------------------------------|
|------------------------------------------------------------------|
|------------------------------------------------------------------|





Comments


Popular Tesla tabs & chords
Modern Day Cowboy Bass Tabs
Forever More Tabs
Hang Tough Tabs
Love Song 1 Tabs
Mighty Mouse Tabs
So What Tabs
The First Time Tabs
Caught In A Dream Ukulele
Little Suzi Ukulele
Signs Live Ukulele


Song lyrics



↑ Back to top | Tablatures and chords are parodies/interpretations of the original songs. You may use it for private study, scholarship, research or language learning purposes only
© 2014 AZChords.com Contact us | Privacy policy | DMCA | Add/correct tabs | Request tabs | Top 50 tabs