>
 >
Hang Tough 1

Hang Tough 1 Guitar Tabs

Tesla - Hang Tough 1 chords, tabs, tablatures, lyrics

Guitar lessons | Add/correct | Request | Top 50 tabs Artists:  A B C D E F G H I J K L M N O P Q R S T U V W X Y Z 0-9

Hang Tough 1 Guitar Tabs – Tesla

CD, Sheet music, Poster

Do you like Hang Tough 1? Share with your friends now
TabsTabs v2
Hi everybody this the text version of the tab of this song. I didn't tab this so I can't 
credit. I just didn't found any text tabs of this song so I decided to export the power 
version in an ASCII file and put it up.
Hope it works for you guys:-)
Good Luck


#------------------------------------------------------------------------------##

                                   HANG TOUGH
                              As recorded by Tesla
                (From the 1989 Album THE GREAT RADIO CONTROVERSY)

Words by Jeff Keith

Music by Tommy Skeoch, Frank Hannon, Brian Wheat & Troy Lucketta
Arranged by Tesla

          E5                   D5                   C5                   B5
      x x 2 4 5 x          x x 0 2 3 x          x 3 5 5 x x          x 2 4 4 x x

          G5                   A5                   Bm                  A/C#
      3 5 5 x x x          x 0 2 2 x x          x 2 4 4 3 x          x 4 2 2 2 x

           D                    E
      x 5 4 2 3 x          x x 2 1 0 0

Gtr I (E A D G B E) - 'Rhythm I'
Gtr II (E A D G B E) - 'Rhythm II'
Gtr III (E A D G B E) - 'Lead I'
Gtr IV (E A D G B E) - 'Lead II'

 Intro
  Moderate Rock Q=90
                             E5
 4/4
                             Gtr I
  W            W             S E S H.
                             | | | |
                             x / x /

               Gtr I         Gtr II
  Wx3          Q  Q  Q  Q    S E S H.
|------------|-------------|-------------|
|------------|-------------|-------------|
|------------|----xS=xS=x--|-x-9-x-9-----|
|------------|----xS=xS=x--|-x-9-x-9-----|
|------------|----xS=xS=x--|-x-7-x-7-----|
|------------|-------------|-------------|


  S E S H.        S E S H.        S E S H.
  | | | |         | | | |         | | | |
  x / x /         x / x /         x / x /

  S E S H.        S E S H.        S E S H     E E
|---------------|---------------|------------------|
|---------------|---------------|------------------|
|-x-5-x-5-------|-x-7-x-7-------|-x-9-x-9-------4/-|
|-x-5-x-5-------|-x-7-x-7-------|-x-9-x-9----------|
|-x-3-x-3-------|-x-5-x-5-------|-x-7-x-7----------|
|---------------|---------------|------------------|


                            C5
  Gtr I
  S E S H.                  S E S H.
  | | | |                   | | | |
  x / x /                   x / x /

  Gtr III
  ~             ~~~~~~                    ~~~~~~
  H         S S E +E  S S   H         S S E +E  S S
|-------------------------|-------------------------|
|-----------8-7-----------|-----------8-7-----------|
|-9-------------9-(9)-9-7-|-9-------------9-(9)-9-7-|
|-------------------------|-------------------------|
|-------------------------|-------------------------|
|-------------------------|-------------------------|
|
| Gtr IV
| ~             ~~~~~~                    ~~~~~~
| H         S S E +E  S S   H         S S E +E  S S
|-----------7p5-----------|-----------7p5-----------|
|-8-------------8-(8)-8p7-|-8-------------8-(8)-8p7-|
|-------------------------|-------------------------|
|-------------------------|-------------------------|
|-------------------------|-------------------------|
|-------------------------|-------------------------|


  D5
  S    E S H.
  |    | | |
  x    / x /

  ~~~~
               |----3-----|
  H            S     +S  +S  E +Q
|------------------------------------|
|------------------------------------|
|-9b11---------9b11==(9)r(9)-7-(7)\--|
|------------------------------------|
|------------------------------------|
|------------------------------------|
|
| ~~~~
|              |----3-----|
| H            S     +S  +S  E +Q
|------------------------------------|
|-8b10---------8b10==(8)r(8)-7-(7)\--|
|------------------------------------|
|------------------------------------|
|------------------------------------|
|------------------------------------|


  Gtr II
   T  T  T  T  T  T  T     T     T  T  T  T  T  T  T  T  T  T  T  T  T  T     T     T  E 
    +E
|19p15h19p15h19p15--------------------------------------------------------------------------------|
|-----------------17p===15h===17p15-12h15p12-17p15-12h15p12h15p12h15p12h===15p===12-17b20==(17)r\|
|-------------------------------------------------------------------------------------------------|
|-------------------------------------------------------------------------------------------------|
|-------------------------------------------------------------------------------------------------|
|-------------------------------------------------------------------------------------------------|
|
| Gtr III
|                    |---3----|                                      |-----3-----|
|  T  T  T  T  T  T  T  T     T  T  T  T  T  T  T  T  T  T  T  T  T  S     S     S     E 
 +E
|15p12h15p12h15p12----------15--------------------------------------------------------------------|
|------------------15p12-------15p12h15p12h15p12----12-15p12h15p12-------12----15----15b17==(15)r\|
|------------------------------------------------15----------------15-----------------------------|
|-------------------------------------------------------------------------------------------------|
|-------------------------------------------------------------------------------------------------|
|-------------------------------------------------------------------------------------------------|
|
| Gtr IV
|  S     S     S     S           S     S     S     S     S     S     S        S    Q
|-------------------------------------------------------------------------------------------------|
|-------------------------------------------------------------------------------------------------|
|-------------------------------------------------------------------------------------------------|
|-------------------------------5----------------------/9-----9-----9--------9--------9\----------|
|-5h====7-----7-----7-----------------7-----7-----7-----------------------------------------------|
|-------------------------------------------------------------------------------------------------|


 Verse 1
  E5              C5                 D5              E5
  Gtr III
  S E S H.         S  E S H.         S E S H.        S E S H.
  | | | |          |  | | |          | | | |         | | | |
  x / x /          x  / x /          x / x /         x / x /

  Gtr I
  S E S H.        +H.           Q    W               S E S H.
|---------------|------------------|---------------|-------------|
|---------------|------------------|---------------|-------------|
|-x-9-x-9-------|-(9)-----------9s=|=7-------------|-x-9-x-9-----|
|-x-9-x-9-------|-(9)-----------9s=|=7-------------|-x-9-x-9-----|
|-x-7-x-7-------|-(7)-----------7s=|=5-------------|-x-7-x-7-----|
|---------------|------------------|---------------|-------------|


                  C5
  S E S H.         S  E S H.
  | | | |          |  | | |
  x / x /          x  / x /

  S E S H.        +H.           Q
|---------------|------------------|
|---------------|------------------|
|-x-9-x-9-------|-(9)-----------9s=|
|-x-9-x-9-------|-(9)-----------9s=|
|-x-7-x-7-------|-(7)-----------7s=|
|---------------|------------------|


  D5              D5E5    G5E5    D5E5 A5
  S E S H.        W
  | | | |
  x / x /

                  Gtrs I, II
                                    ~~
  W               S S S S S S S S S E.   Q
|---------------|------------------------------||
|---------------|------------------------------||
|-7-------------|---------7--------------------||
|-7-------------|-7h9-9-9-5-9-9-9-7h9--/14\----||
|-5-------------|-5h7-7-7---7-7-7-5h7--/12\----||
|---------------|------------------------------||


 Pre-Chorus
  N.C.
      ~        ~~~~~~         ~        ~~~~~~
   Q  Q  S S S S +Q     a E E Q  S S S S +Q
|---------------------|-----------------------|
|---------------------|-----------------------|
|---------------------|-----------------------|
|---------------------|-----------------------|
|-/7--5----7----------|-5s7-7-5----7----------|
|--------5---5-3-(3)--|----------5---5-3-(3)--|


     ~        ~~~~~~         ~        ~~~~~~
  Q  Q  S S S S +Q     a E E Q  S S S S +Q
|--------------------|-------------------------|
|--------------------|-------------------------|
|--------------------|-------------------------|
|-5--4---------------|-4s5-5-4-----------------|
|-7--5----7----------|-5s7-7-5----7------------|
|-------5---5-3-(3)--|----------5---5-3-(3)----|


  E5                        C5
  Gtr III
  S E S H.                  S E S H.
  | | | |                   | | | |
  x / x /                   x / x /

  Gtr I
  ~             ~~~~~~                    ~~~~~~
  H         S S E +E  S S   H         S S E +E  S S
|-------------------------|-------------------------|
|-----------8-7-----------|-----------8-7-----------|
|-9-------------9-(9)-9-7-|-9-------------9-(9)-9-7-|
|-------------------------|-------------------------|
|-------------------------|-------------------------|
|-------------------------|-------------------------|
|
| Gtr II
| ~             ~~~~~~                    ~~~~~~
| H         S S E +E  S S   H         S S E +E  S S
|-----------7p5-----------|-----------7p5-----------|
|-8-------------8-(8)-8p7-|-8-------------8-(8)-8p7-|
|-------------------------|-------------------------|
|-------------------------|-------------------------|
|-------------------------|-------------------------|
|-------------------------|-------------------------|


  D5
  S    E S H.
  |    | | |
  x    / x /

  ~~~~
               |----3-----|
  H            S     +S  +S  E +Q
|------------------------------------|
|------------------------------------|
|-9b11---------9b11==(9)r(9)-7-(7)\--|
|------------------------------------|
|------------------------------------|
|------------------------------------|
|
| ~~~~
|              |----3-----|
| H            S     +S  +S  E +Q
|------------------------------------|
|-8b10---------8b10==(8)r(8)-7-(7)\--|
|------------------------------------|
|------------------------------------|
|------------------------------------|
|------------------------------------|


  Gtr I
                     |--3--|                          |--------6---------|
   T  T  T  T  T  T  T  T  T  T  T  T  T  T  T  T  T  S  S    S  S  S    S  Q
|-19p15h19p15h19p15-------15------------------------------------------------------||
|-------------------19p15----19p15h19p15h19p15----17-19p15h==19p15h19p==15-17b20--||
|----------------------------------------------19---------------------------------||
|---------------------------------------------------------------------------------||
|---------------------------------------------------------------------------------||
|---------------------------------------------------------------------------------||
|
| Gtr II
|                    |--3--|                          |--------6---------|
|  T  T  T  T  T  T  T  T  T  T  T  T  T  T  T  T  T  S  S    S  S  S    S  Q
|-15p12h15p12h15p12-------12------------------------------------------------------||
|-------------------15p12----15p12h15p12h15p12----12-15p12h==15p12h15p==12-15b17--||
|----------------------------------------------14---------------------------------||
|---------------------------------------------------------------------------------||
|---------------------------------------------------------------------------------||
|---------------------------------------------------------------------------------||
|
| Gtr III
|  S     S     S     S        S     S     S     S     S    S     S    S     Q
|---------------------------------------------------------------------------------||
|---------------------------------------------------------------------------------||
|---------------------------------------------------------------------------------||
|-----------------------------5----------------------/9----9-----9----9-----9\----||
|--5h====7-----7-----7--------------7-----7-----7---------------------------------||
|---------------------------------------------------------------------------------||


 Verse 2
  E5              C5                 D5              E5
  Gtr III
  S E S H.         S  E S H.         S E S H.        S E S H.
  | | | |          |  | | |          | | | |         | | | |
  x / x /          x  / x /          x / x /         x / x /

  Gtr I
  S E S H.        +H.           Q    W               S E S H.
|---------------|------------------|---------------|-------------|
|---------------|------------------|---------------|-------------|
|-x-9-x-9-------|-(9)-----------9s=|=7-------------|-x-9-x-9-----|
|-x-9-x-9-------|-(9)-----------9s=|=7-------------|-x-9-x-9-----|
|-x-7-x-7-------|-(7)-----------7s=|=5-------------|-x-7-x-7-----|
|---------------|------------------|---------------|-------------|


                  C5
  S E S H.         S  E S H.
  | | | |          |  | | |
  x / x /          x  / x /

  S E S H.        +H.           Q
|---------------|------------------|
|---------------|------------------|
|-x-9-x-9-------|-(9)-----------9s=|
|-x-9-x-9-------|-(9)-----------9s=|
|-x-7-x-7-------|-(7)-----------7s=|
|---------------|------------------|


  D5              D5E5    G5      D5E5 A5
  S E S H.        W
  | | | |
  x / x /

                Gtrs I, II
                                    ~~
  W               S S S S S S S S S E.   Q
|---------------|------------------------------|
|---------------|------------------------------|
|-7-------------|---------7--------------------|
|-7-------------|-7h9-9-9-5-9-9-9-7h9--/14\----|
|-5-------------|-5h7-7-7---7-7-7-5h7--/12\----|
|---------------|------------------------------|


 Pre-Chorus
  N.C.
      ~        ~~~~~~         ~        ~~~~~~
   Q  Q  S S S S +Q     a E E Q  S S S S +Q
|---------------------|-----------------------|
|---------------------|-----------------------|
|---------------------|-----------------------|
|---------------------|-----------------------|
|-/7--5----7----------|-5s7-7-5----7----------|
|--------5---5-3-(3)--|----------5---5-3-(3)--|


     ~        ~~~~~~         ~        ~~~~~~
  Q  Q  S S S S +Q     a E E Q  S S S S +Q
|--------------------|-------------------------||
|--------------------|-------------------------||
|--------------------|-------------------------||
|-5--4---------------|-4s5-5-4-----------------||
|-7--5----7----------|-5s7-7-5----7------------||
|-------5---5-3-(3)--|----------5---5-3-(3)----||


 Chorus
  A5     F5              C5     G5
  Gtr I
  Q  S S  E  +Q.   S S   Q  S S E +H
|----------------------|-----------------|
|----------------------|-----------------|
|----x-x-10-(10)---x-x-|-5---------------|
|-7--x-x-10-(10)---x-x-|-5--x-x-5-(5)----|
|-7--x-x--8--(8)---x-x-|-3--x-x-5-(5)----|
|-5--------------------|----x-x-3-(3)----|
|
| Gtr II
| W                      W
|----------------------|-----------------|
|----------------------|-----------------|
|----------------------|-----------------|
|----------------------|-----------------|
|----------------------|-----------------|
|----------------------|-----------------|


  A5     F5              C5                  G5
  Q  S S  E  +Q.   S S     Q            S  S  E  +H
|----------------------|------------------------------------|
|----------------------|------------------------------------|
|----x-x-10-(10)---x-x-|---5--------------------------------|
|-7--x-x-10-(10)---x-x-|---5------------x--x--5--(5)--------|
|-7--x-x--8--(8)---x-x-|---3------------x--x--5--(5)--------|
|-5--------------------|----------------x--x--3--(3)--------|
|
| W                        S  S  S  S  +S  S  E  +Q    Q
|----------------------|------------------------------------|
|----------------------|-----------13-(13)-x-12-(12)--------|
|----------------------|--------12---------x-12-(12)--------|
|----------------------|-/12h14------------x-12-(12)--------|
|----------------------|------------------------------------|
|----------------------|------------------------------15\---|


  A5     F5              C5     G5         A5     F5
  Q  S S  E  +Q.   S S   Q  S S E +H       Q  S S  E  +H
|----------------------|-----------------|-------------------|
|----------------------|-----------------|-------------------|
|----x-x-10-(10)---x-x-|-5---------------|----x-x-10-(10)----|
|-7--x-x-10-(10)---x-x-|-5--x-x-5-(5)----|-7--x-x-10-(10)----|
|-7--x-x--8--(8)---x-x-|-3--x-x-5-(5)----|-7--x-x--8--(8)----|
|-5--------------------|----x-x-3-(3)----|-5-----------------|


  C5                  G5
                                                  2/4
  Gtrs I, II
    E.       S  +E     E  +H          +W           +Q    Q
|-----------------------------------|------------|-----------||
|-----------------------------------|------------|-----------||
|---5--------5--(5)-----------------|------------|-----------||
|---5--------5--(5)----5--(5)-------|-(5)--------|-(5)-------||
|---3--------3--(3)----5--(5)-------|-(5)--------|-(5)-------||
|----------------------3--(3)-------|-(3)--------|-(3)--12\--||
|
| Gtr III
|   S  S  S  S  +S  S  E  +Q    Q      W            H
|-----------------------------------|------------|-----------||
|-----------13-(13)-x-12-(12)-------|------------|-----------||
|--------12---------x-12-(12)-------|------------|-----------||
|-/12h14------------x-12-(12)-------|------------|-----------||
|-----------------------------------|------------|-----------||
|------------------------------15\--|------------|-----------||


 Guitar Solo
  B5                   G5
 4/4
  Gtr III
  Q.                   E      +H
  |                    |       |
  /                    /       /

  Gtr I
  |-----6-----| |-----6-----|  |-----6-----| |-----6-----|
  S  S S S  S S S  S S S  S S  S  S S S  S S S  S S S  S S
|-7h10p7-7h10p7-7h10p7-7h10p7--7h10p7-7h10p7-7h10p7-7h10p7-|
|----------------------------------------------------------|
|----------------------------------------------------------|
|----------------------------------------------------------|
|----------------------------------------------------------|
|----------------------------------------------------------|
|
| Gtr II
| |-----6-----| |-----6-----|  |-----6-----| |-----6-----|
| S  S S S  S S S  S S S  S S  S  S S S  S S S  S S S  S S
|----------------------------------------------------------|
|-7h12p7-7h12p7-7h12p7-8h12p8--8h12p8-8h12p8-8h12p8-8h12p8-|
|----------------------------------------------------------|
|----------------------------------------------------------|
|----------------------------------------------------------|
|----------------------------------------------------------|


  D5                         A5
   Q.                         E       +H
   |                          |        |
   /                          /        /

   |------6-------|  |------6-------|  |------6-------|  |------6-------|
   S  S  S  S  S  S  S  S  S  S  S  S  S  S  S  S  S  S  S  S  S  S  S  S
|-10h14p10-10h14p10-10h14p10--9h12p=9--9h12p=9--9h12p=9--9h12p=9--9h12p=9----|
|----------------------------------------------------------------------------|
|----------------------------------------------------------------------------|
|----------------------------------------------------------------------------|
|----------------------------------------------------------------------------|
|----------------------------------------------------------------------------|
|
|  |------6-------|  |------6-------|  |------6-------|  |------6-------|
|  S  S  S  S  S  S  S  S  S  S  S  S  S  S  S  S  S  S  S  S  S  S  S  S
|----------------------------------------------------------------------------|
|-12h15p12-12h15p12-12h15p12-10h14p10-10h14p10-10h14p10-10h14p10-10h14p10----|
|----------------------------------------------------------------------------|
|----------------------------------------------------------------------------|
|----------------------------------------------------------------------------|
|----------------------------------------------------------------------------|


  B5                         G5
   Q.                         E       +H
   |                          |        |
   /                          /        /

   |------6-------|  |------6-------|  |------6-------|  |------6-------|
   S  S  S  S  S  S  S  S  S  S  S  S  S  S  S  S  S  S  S  S  S  S  S  S
|-19h22p19-19h22p19-19h22p19-19h22p19-19h22p19-19h22p19-19h22p19-19h22p19-|
|-------------------------------------------------------------------------|
|-------------------------------------------------------------------------|
|-------------------------------------------------------------------------|
|-------------------------------------------------------------------------|
|-------------------------------------------------------------------------|
|
|  |------6-------|  |------6-------|  |------6-------|  |------6-------|
|  S  S  S  S  S  S  S  S  S  S  S  S  S  S  S  S  S  S  S  S  S  S  S  S
|-14h19p14-14h19p14-14h19p14-15h19p15-15h19p15-15h19p15-15h19p15-15h19p15-|
|-------------------------------------------------------------------------|
|-------------------------------------------------------------------------|
|-------------------------------------------------------------------------|
|-------------------------------------------------------------------------|
|-------------------------------------------------------------------------|


  D5                          A5
   Q.                          E       +H
   |                           |        |
   /                           /        /

   |-------6-------|  |------6-------|  |------6-------|  |------6-------|
   S   S  S  S  S  S  S  S  S  S  S  S  S  S  S  S  S  S  S  S  S  S  S  S
|-22--22-22-21-21-21-19-19-19-17-17-17--------------------------------------|
|--------------------------------------19-19-19-17-17-17-15-15-15-15-15-15--|
|---------------------------------------------------------------------------|
|---------------------------------------------------------------------------|
|---------------------------------------------------------------------------|
|---------------------------------------------------------------------------|
|
|  |-------6-------|  |------6-------|  |------6-------|  |------6-------|
|  S   S  S  S  S  S  S  S  S  S  S  S  S  S  S  S  S  S  S  S  S  S  S  S
|-19--19-19-17-17-17--------------------------------------------------------|
|--------------------19-19-19-17-17-17--------------------------------------|
|--------------------------------------19-19-19-18-18-18-16-16-16-14-14-14--|
|---------------------------------------------------------------------------|
|---------------------------------------------------------------------------|
|---------------------------------------------------------------------------|


  B5                     G5                  D5                     A5
   Q.                     E     +H            Q.                     E  +H
   |                      |      |            |                      |   |
   /                      /      /            /                      /   /

                          ~~~~~~~~~~                                 ~~~~~~~
            |----3-----|                               |----3-----|
   E.    S  S      +S  S  E     +Q.   S  S    E.    S  S      +S  S  E  +Q    Q
|-------------------------------------7--9-|--9b10--9--9pb11r=(9)p7--9--(9)-------|
|-10b12-10-10pb12r(10)p7-10b12-(10)--------|--------------------------------------|
|------------------------------------------|--------------------------------------|
|------------------------------------------|--------------------------------------|
|------------------------------------------|--------------------------------------|
|------------------------------------------|---------------------------------19\--|
|
|                         ~~~~~~~~~~                                 ~~~~~~~
|           |----3-----|                               |----3-----|
|  Q        S      +S  S  E     +Q.   S  S    E.    S  S      +S  S  E  +Q    Q
|------------------------------------------|--------------------------------------|
|-------------------------------------8-10-|-10b12-10-10pb12r(10)p7-10-(10)-------|
|--9b11-----9pb11r=(9)p7--9b11--(9)--------|--------------------------------------|
|------------------------------------------|--------------------------------------|
|------------------------------------------|--------------------------------------|
|------------------------------------------|---------------------------------19\--|


  B5                     G5
  Q.                      E       +H
  |                       |        |
  /                       /        /

                                                     ~~~~~
  |-----6-----|  |------6-------|  |------6-------|
  S S  S S S  S  S  S  S  S  S  S  S  S  S  S  S  S  Q
|------------------------10h12h14----------17h19h21-21b22--|
|---------------10h12h14----------15h17h19-----------------|
|--------7h9h11--------------------------------------------|
|-7h9h11---------------------------------------------------|
|----------------------------------------------------------|
|----------------------------------------------------------|
|
|                                                    ~~~~~
| |-----6-----|  |------6-------|  |------6-------|
| S S  S S S  S  S  S  S  S  S  S  S  S  S  S  S  S  Q
|------------------------10h12h14----------10h12h14-17b19--|
|---------------10h12h14----------10h12h14-----------------|
|--------7h9h11--------------------------------------------|
|-7h9h11---------------------------------------------------|
|----------------------------------------------------------|
|----------------------------------------------------------|


  D5                               A5
   E.          S +E                 E     +H
   |           |  |                 |      |
   /           /  /                 /      /

                                           ~~~~~~~
                  |------3-------|
   Q              S      +S      S  E     +H
|-21b22----------21pb23r(21)p===19-21----(21)----|
|------------------------------------------------|
|------------------------------------------------|
|------------------------------------------------|
|------------------------------------------------|
|------------------------------------------------|
|
|                                          ~~~~~~~
|                 |------3-------|
|  E.          S  S      +S      S  E     +H
|-17b19-------17-17pb19r(17)p===14-17----(17)----|
|------------------------------------------------|
|------------------------------------------------|
|------------------------------------------------|
|------------------------------------------------|
|------------------------------------------------|
|
| Gtr IV
|  S     S  S  S  S           S     S  S  +H
|------------------------------------------------|
|------------------------------------------------|
|----------14-14-------------14----14-14-(14)----|
|-14h===16-------16------------------------------|
|------------------------------------------------|
|------------------------------------------------|


                                                               Bm
                                2/4                           4/4
   +W                            +H                             W
    |                             |                             |
    /                             /                             /

 ~~~~~~                                                         ~~
   +Q   Q    S      +E.  +E  E    E.     +S   +E      +S   S    W
|-(21)-------------------------|-----------------------------|-------|
|-----------17pb19r(17)-(17)---|-17pb19r(17)-(17)b19r(17)p15-|-------|
|------------------------------|-----------------------------|-16----|
|------------------------------|-----------------------------|-------|
|------------------------------|-----------------------------|-------|
|------------------------------|-----------------------------|-------|
|
|~~~~~~                                                         ~~
|  +Q   Q    S      +E.  +E  E    E.     +S   +E      +S   S    W
|-(17)-------------------------|-----------------------------|-------|
|-----------17pb19r(17)-(17)---|-17pb19r(17)-(17)b19r(17)p15-|-------|
|------------------------------|-----------------------------|-16----|
|------------------------------|-----------------------------|-------|
|------------------------------|-----------------------------|-------|
|------------------------------|-----------------------------|-------|
|
|  +Q   H.                        H                             W
|------------------------------|-----------------------------|-------|
|------------------------------|-----------------------------|-------|
|-(14)-------------------------|-----------------------------|-------|
|------------------------------|-----------------------------|-------|
|------------------------------|-----------------------------|-------|
|------------------------------|-----------------------------|-------|


  Gtr III
   +W                 W          W
    |
    /

  Gtr I
    ~~~~
   +Q.    +E   H      W          W
|-------------------|----------|------||
|-------------------|----------|------||
|-(16)---(16)\------|----------|------||
|-------------------|----------|------||
|-------------------|----------|------||
|-------------------|----------|------||
|
| Gtr II
|   ~~~~
|  +Q.    +E   H      W          W
|-------------------|----------|------||
|-------------------|----------|------||
|-(16)---(16)\------|----------|------||
|-------------------|----------|------||
|-------------------|----------|------||
|-------------------|----------|------||


 Bridge
  Bm         A/C#        D
  Gtr II
  W           W           W
  |           |           |
  /           /           /

  Gtr I
  W           W           W
|----------|-----------|-------|
|----------|-----------|-------|
|-4--------|-/6--------|-/7----|
|----------|-----------|-------|
|-2--------|-/4--------|-/5----|
|----------|-----------|-------|


  E                          Bm          A/C#        D
   W                          W           W          W
   |                          |           |          |
   /                          /           /          /

   Q.   S S E S S +S  S E     W           W          W
|--------------------------|-----------|-----------|------|
|--------------------------|-----------|-----------|------|
|-/9----x-x-9-x-7-(7)-x-6\-|-^4--------|-^2--------|------|
|--------------------------|-^4--------|-^2--------|-4----|
|-/7----x-x-7-x-5-(5)-x-4\-|-^2--------|-^4--------|-5----|
|--------------------------|-----------|-----------|------|


  E                       Bm                       A/C#
   W                       W                        W
   |                       |                        |
   /                       /                        /

   Q      H.               E     E E E +H           E     E E E +H
|-----------------------|------------------------|---------------------|
|---------5-------------|------------3-(3)-------|------------2-(2)----|
|---------4-------------|----------4-------------|----------2----------|
|---------6-------------|--------4---------------|--------2------------|
|---------7-------------|--2---------------------|--4------------------|
|-----------------------|------------------------|---------------------|
|
| Gtr III
|  <           >           <            >
|  H           H           H            H           H            H
|-----------------------|------------------------|---------------------|
|-10tr12------10tr12----|-10tr12-------10tr12----|-10tr12--------------|
|-----------------------|------------------------|---------------------|
|-----------------------|------------------------|---------------------|
|-----------------------|------------------------|---------------------|
|-----------------------|------------------------|---------------------|


  D                                E                     Bm
  W                                 W                     W
  |                                 |                     |
  /                                 /                     /

                                                 ~~~
  E E E  E       +H                 E E   E   E +H        W
|--------------------------------|---------------------|-------|
|--------3-------(3)-------------|------------5-(5)----|-------|
|-----2--------------------------|------------4-(4)----|-^4----|
|---4----------------------------|--------6------------|-^4----|
|-5------------------------------|----7----------------|-^2----|
|--------------------------------|--0------------------|-------|
|
| Q   E  E       +E.  +S   S  E.    Q    +Q      H        W
|-------12pb14==(12)r(12)-12-10--|---------------------|-------|
|--------------------------------|-12---(12)\----------|-------|
|--------------------------------|---------------------|-------|
|--------------------------------|---------------------|-------|
|--------------------------------|---------------------|-------|
|--------------------------------|---------------------|-------|


  A/C#        D          E5
   W          W           Q      Q      Q      Q
   |          |           |      |      |      |
   /          /           /      /      /      /

                          ~~~~~~~~~~~~~~~~~~~~~~~~~~
   W          W           Q      Q      Q      E.    T  T
|-----------|----------|-------------------------------19-|
|-----------|----------|-22b24--22b24--22b24--22b24-22----|
|-^2--------|----------|----------------------------------|
|-^2--------|-4--------|----------------------------------|
|-^4--------|-5--------|----------------------------------|
|-----------|----------|----------------------------------|


   W
   |
   /

   S  S  T  T  T  T  T  T  T  T  T  T  T  T  T  T  T  T  T  T  T  T  S  S  S  S
|-22p19-22p19-22p19------------------------------------------------------------------||
|-------------------22p19-22p19-22p19----19------------------------------------------||
|-------------------------------------21----21p19-21p19----19------------------------||
|-------------------------------------------------------21----21p19------------------||
|-------------------------------------------------------------------21-20-19---------||
|----------------------------------------------------------------------------22b22.5-||


 Outro-Chorus
  B5   G5        D5    A5
  Gtrs I, II
  Q.   E +H       Q.    E +H
  |    |  |       |     |  |
  /    /  /       /     /  /

  Gtr III
  ~~~~~~~~~~~~~~~~~~~~~~~~~~~~
  W               Q.    E +H
|--------------|-----------------|
|--------------|-----------------|
|--------------|-----------------|
|--------------|-----------------|
|--------------|-/5--------------|
|-7------------|-------/5-(5)----|


    B5     G5            D5               A5
    Q.     E +H          Q.               E +H
    |      |  |          |                |  |
    /      /  /          /                /  /

                                          ~~~~~
                             |----3----|
  a Q.   a E  Q.   S S   Q   S    +S  +S  E  H
|----------------------|--------------------------|
|----------------------|--------------------------|
|------------------4h6-|-7---6b8==(6)r(6)---------|
|-7h9----7h9--9--------|------------------7--7----|
|----------------------|--------------------------|
|----------------------|--------------------------|


  B5                   G5                   D5                   A5
   Q.                   E      +H           Q.                    E  +H
   |                    |       |           |                     |   |
   /                    /       /           /                     /   /

                        ~~~~~~~~~~~~                              ~~~~~~~
          |----3-----|                                  |--3---|
   Q      S      +S  S  E      +Q.    S S   E.   S     +S  +S  S  E  +Q.   E
|-------------------------------------7h9-|-9b10-9b10==(9)r(9)p7--------------|
|-10b12--10pb12r(10)-7-10b12==(10)r-------|----------------------10-(10)---x/-|
|-----------------------------------------|-----------------------------------|
|-----------------------------------------|-----------------------------------|
|-----------------------------------------|-----------------------------------|
|-----------------------------------------|-----------------------------------|


  B5                   G5
   Q.                   E           +H
   |                    |            |
   /                    /            /

                                     ~~~~
          |----3-----|
   Q      S      +S  S  S      +S   +Q   S S S S
|------------------------------------------------|
|-10b12--10pb12r(10)-7-10pb12r(10)-(10)----------|
|--------------------------------------------7---|
|----------------------------------------7h9---9-|
|------------------------------------------------|
|------------------------------------------------|


  D5              A5
  Q.              E     +H
  |               |      |
  /               /      /

  |---5---| |----6----|  |----6----|  |-----6-----|
  S S S S S S S S S S S  S S S S S S  S S  S S  S S
|--------------------------------------------7----7-|
|------------------------------7---7-10p7h10---10---|
|-------7---9p7---7---7--9p7h9---9------------------|
|-----7---9-----9---9-------------------------------|
|-7h9-----------------------------------------------|
|---------------------------------------------------|


  B5           G5                          D5                   A5
   Q.           E  +H                        Q.                  E  +H
   |            |   |                        |                   |   |
   /            /   /                        /                   /   /

   ~~~~~        ~~~~~~~                                          ~~~~~~~
                                                  |-----3-----|
   Q      E     E  +Q    +S  S   S  S       +Q    S      +S   S  E  +Q   Q
|-10b12--10b12-10-(10)--(10)-7/-19-------|-----------------------------------|
|----------------------------------22b24-|-(22)--22pb24r(22)p19--------------|
|----------------------------------------|----------------------21-(21)------|
|----------------------------------------|-----------------------------------|
|----------------------------------------|-----------------------------------|
|----------------------------------------|-----------------------------------|


  B5                                  G5
   Q.                                  E          +H
   |                                   |           |
   /                                   /           /

   S     T  T  S     T  T  S     T  T  S     T  T  S     T  T  S     T  T  S     T  T  S 
   T  T
|-------19p14-------19p14-------19p14-------19p14-------19p14-------19p14-------19p14-------19p14-|
|-17b19-------17b19-------17b19-------17b19-------17b19-------17b19-------17b19-------17b19-------|
|-------------------------------------------------------------------------------------------------|
|-------------------------------------------------------------------------------------------------|
|-------------------------------------------------------------------------------------------------|
|-------------------------------------------------------------------------------------------------|


  D5                            A5
   Q.                           E          +H
   |                            |           |
   /                            /           /

   |------6-------|  |---------7---------|  |------6-------|  |--------7--------|
   S  S  S  S  S  S  S  S  S  S    S  S  S  S  S  S  S  S  S  S  S  S  S  S  S  S
|-17p14h17p14h17p14h17-14----14---------------------------------------------------|
|-------------------------17------17p15----17-15----------------------------------|
|---------------------------------------16-------16p14h16p14h16p14----14----------|
|------------------------------------------------------------------16----16S14-12-|
|---------------------------------------------------------------------------------|
|---------------------------------------------------------------------------------|


  B5                  G5                        D5                      A5
   Q.                  E        +H              Q.                      E +H
   |                   |         |              |                       |  |
   /                   /         /              /                       /  /

                             ~~~~~~~                                    ~
                       |--3--|
   E      +S   +S   E  S  S  S  +Q    +E    E   S S S S T     +T  +T  T E  E +E   Q
|---------------------------------------------|--------------------------------------|
|---------------------------------------------|--------------------------------------|
|---------------------------------------------|-----7h9-9b11==(9)r(9)p7h9--9-(9)\----|
|-14b16==(14)r(14)p12-------------------------|-7h9----------------------------------|
|---------------------14p12h14-(14)--(14)\-/9-|--------------------------------------|
|---------------------------------------------|--------------------------------------|


  B5                G5
  Q.                E      +H
  |                 |       |
  /                 /       /

  S    S S S    S S S    S  S S    S S S    S S S
|--------7--------7---------7--------7--------7----|
|------7--------7--------7---------7--------7------|
|-9b11-----9b11-----9b11------9b11-----9b11-----9--|
|--------------------------------------------------|
|--------------------------------------------------|
|--------------------------------------------------|


  D5                       A5
   E.    S      +E          E  +H        +H          S E. +Q
   |     |       |          |   |         |          | |   |
   /     /       /          /   /         /          / /   /

                            ~~~~~~~~~~~~~~~~~~~~~~~~~
                 |---3---|
   E.    S      +S   +S  S  E  +H        +Q.    +E   H
|-------------------------------------|-----------------------|
|-10b12-10b12==(10)r(10)p7-10-(10)----|-(10)---(10)\----------|
|-------------------------------------|-----------------------|
|-------------------------------------|-----------------------|
|-------------------------------------|-----------------------|
|-------------------------------------|-----------------------|


  +H    S E. +Q     +H          S     E.               +Q
   |    | |   |      |          |     |                 |
   /    / /   /      /          /     /                 /

                                \1/   \1/   \1/   \1/   \1/   \1/   \1/   \1/
   H    S E. +Q     +Q.   +E    S    +S    +S    +S    +S    +S    +S    +S
|-----------------|-----------------------------------------------------------|
|-----------------|------------10---(10)--(10)--(10)--(10)--(10)--(10)--(10)--|
|-----------------|-----------------------------------------------------------|
|-------7-7--(7)--|-(7)---(7)/------------------------------------------------|
|-----------------|-----------------------------------------------------------|
|-----------------|-----------------------------------------------------------|


                                      B5
   +Q.                                E Q  Q
    |                                 | |
    /                                 / /

    \1/   \1/   \1/   \1/   \1/   \1/
   +S    +S    +S    +S    +S    +S   E H
|---------------------------------------------*|
|-(10)--(10)--(10)--(10)--(10)--(10)----------*|
|---------------------------------------------*|
|---------------------------------------------*|
|---------------------------------------------*|
|---------------------------------------------*|





Comments


Popular Tesla tabs & chords
Signs Bass Tabs
Little Suzi Chords
Change In The Weather Tabs
Down Fo' Boogie 1 Tabs
Gettin' Better Tabs
Heaven Nine ElevenIntro Tabs
Into The Now Tabs
Love Song Live Tabs
Mighty Mouse Tabs
Modern Day Cowboy Tabs


Song lyrics



↑ Back to top | Tablatures and chords are parodies/interpretations of the original songs. You may use it for private study, scholarship, research or language learning purposes only
© 2014 AZChords.com Contact us | Privacy policy | DMCA | Add/correct tabs | Request tabs | Top 50 tabs